PrimaNota.ru - самый крупный в мире бесплатный архив песенных текстов, аккордов, табулатур и нот


Thea Gilmore - Holding Your Hand - текст песни, таба, видео

Регистрация Запомнить меня
Войти через:  Facebook Google Twitter Vk Yandex Mail.ru

Thea Gilmore - Holding Your Hand - текст песни, таба, видео

Печатать
Просмотров: 185
Name: Neil Whalley   Date: 22/02/02
Corrections to: njw12381@hotmail.com

The following tab represents my own work:

Artist and Writer: Thea Gilmore
Album: Rules for Jokers
Song: Holding your Hand
Important: The world needs to know about Thea Gilmore.=20
She is a superb songwriter and musician. Buy the album now.
This is a particularly beautiful song:

                               Holding Your Hand

This is a finger picking track using the basic chords of G,C and D
Intro: G--C--G--C
Verse:G--C--G--C--D--G--C--D--G
Chorus:G--D--C--G--G--D--C--D--G

Verse 1 (+Intro)

G-shape  I'm gonna haunt...                  C-shape   ...you

e-------3---------------3-----------------0---------------0----------R
B-----3---3-----------3---3-------------2---2-----------2---2--------E
G---0-------0---0---0-------0----0----0-------0---0---0-------0---0--P
D--------------------------------------------------------------------E
A-----------------------------2-----3-----------3---3-----------3----A
E-3-----------3---3--------------------------------------------------T

D-shape   Through the playgounds...     G-shape  I'll be saluting...

e-------2---------------2----------------3---------------3-----------=20
B-----3---3-----------3---3------------3---3-----------3---3---------
G---2-------2---2---2-------2---2----0-------0---0---0-------0----0--=20
D-0-----------0---0-----------0--------------------------------------
A----------------------------------2-----------2---2-----------2-----
E--------------------------------------------------------------------

C-shape  I'll be..    D-shape ..holding your....  G-shape   ....hand.

e----------0----------------2----------------3----------- =20
B--------2---2------------3---3------------3---3---------
G------0-------0---0----2-------2---2----0-------0---0---
D---------------------0-----------0----------------------
A----3-----------3---------------------------------------
E--------------------------------------3-----------3---3-

Chorus follows same arpeggio pattern but with the slightly different =
chord order.
See above for details.

Some of the bass notes particularly for D-chords are difficult to pick =
out on CD
with piano etc. so play about and feel free to modify this =
transcription.
Enjoy.
     
Добавлено: 15.08.2013
Другие материалы по этой песне:
  • Аккорды и текст

Страница создана 05.05.2012
http://primanota.ru/thea-gilmore/holding-your-hand-chords.htm
Привет, Гость.
Предлагаем пройти революционный курс по гитаре.
Подарок от PrimaNota.Ru, забирай!