PrimaNota.ru - самый крупный в мире бесплатный архив песенных текстов, аккордов, табулатур и нот


The Youth - Mukha Ng Pera - таба, видео

Регистрация Запомнить меня
Войти через:  Facebook Google Twitter Vk Yandex Mail.ru

The Youth - Mukha Ng Pera - таба, видео

Печатать
Просмотров: 105
Tabs for song: Mukha ng pera
Artist: The Youth
Album: Album na walang pamagat
Tabbed by: Ferdie Esguerra
Email: Dhex_armageddon@yahoo.com

Legend:

 |   p   Pull-off
 |   h   Hammer-on
 |   /   Slide up
 |   \   Slide down
 |   ()   Vibrato

***************************************************************

 Intro:

        D                   Bm
e||---0--0--0-----|--------------|-----------------------------------------|
B||---3--3--3--3--|--3--3--3-----|--3/-5--3--5—5/-7—7/-8\-7----|
G||---2-----------|--4--4--4--4--|-----------------------------------------|
D||---0-----------|--4-----------|-----------------------------------------|
A||---------------|--2-----------|-----------------------------------------|
E||---------------|--------------|-----------------------------------------|

   -----------------------------------------------------------------|
   ---3—3/-5--3--5—5/-7-5—3\-2—2/—3\--|
   ---2-------------------------------------------------------------|
   ---0-------------------------------------------------------------|
   -----------------------------------------------------------------|
   -----------------------------------------------------------------|


Guitar Solo: Chord pattern (D-Bm-G-A)
e||---------------------------------------------------------------|
B||---5p-5p-5p-5p—5/-7—3h-5—2h-3----------------|
G||------------------------------4-4-4-4--------------------------|
D||---------------------------------------------------------------|
A||---------------------------------------------------------------|
E||---------------------------------------------------------------|

   ------------------------------------------------------------|
   -----------------2-3-5/-7-5-----5-7-8-10-8-7h-8-5h-7--------|
   -------------2-4------------7-7----------------------7------|
   -------0-2-4------------------------------------------------|
   ---2-4------------------------------------------------------|
   ------------------------------------------------------------|

   --/10-10/-12-12/-14/-15-15-14--|-14-15-17-15\14--|4x|--17p-17--|
   -------------------------------|-----------------|  |----------|
   -------------------------------|-----------------|  |----------|
   -------------------------------|-----------------|  |----------|
   -------------------------------|-----------------|  |----------|
   -------------------------------|-----------------|  |----------|

e||--15-14-15-14-----------------------------------------|
B||--------------15----15-15/-17-17p-17p-17-15\14-14-15--|
G||-----------------14-----------------------------------|
D||------------------------------------------------------|
A||------------------------------------------------------|
E||------------------------------------------------------|

  --12-14-10-10--17-17-15-15\14-15\14------15-15-15-14-14--14--------|
  ------------------------------------15-----------------15---15-----|
  ---------------------------------------14---------------------14---|
  -------------------------------------------------------------------|
  -------------------------------------------------------------------|
  -------------------------------------------------------------------|

  ---------------------------15-17-13/15-15-12h13-13------|
   --15-17-15-17-17p-17p-17-17----------------------------|
   -------------------------------------------------------|
   -------------------------------------------------------|
   -------------------------------------------------------|
   -------------------------------------------------------|

   --10h12-12----------------------------------|
   -----------10h-12-12p-10--------------------|
   --------------------------------------------|
   --------------------------------------------|
   --------------------------------------------|
   --------------------------------------------|


I haven't seen this tab posted so ill post with my own.
Pinoy funk/Rock alternative id never forgotten.
Dedicated to my loving wife and son “ Rosan and Kurt Cobain”
To all my friends out there, my ormer band “Selda Singko” Urrutia boys ng 
valenzuela
Musta kayo dyan. Sa mga music lover gud luck “ IT'S TOO LOUD. YOUR TOO 
(07Oct2006)
Any suggestion and comments just email me at” dhex_armageddon@yahoo.com”
Добавлено: 13.07.2012
Другие материалы по этой песне:

Страница создана 27.04.2012
http://primanota.ru/the-youth/mukha-ng-pera-chords.htm
Привет, Гость.
Предлагаем пройти революционный курс по гитаре.
Подарок от PrimaNota.Ru, забирай!