PrimaNota.ru - самый крупный в мире бесплатный архив песенных текстов, аккордов, табулатур и нот


The Xcerts - Young Belane - таба, видео

Регистрация Запомнить меня
Войти через:  Facebook Google Twitter Vk Yandex Mail.ru

The Xcerts - Young Belane - таба, видео

Печатать
Просмотров: 120
Уроки эстрадного вокала в Санкт-Петербурге
-------------------------------------------------------------------------------
                             Young (Belane) THE XCERTS
-------------------------------------------------------------------------------
My first and probably ONLY tab, because making this was a nightmare! I love this band 
and there are only a couple of tabs for a few of their songs on the internet, so I felt it 
necessary to make another. Enjoy!

Tabbed by: Innes Nolan
Email:

Tuning: Drop D

INTRO:
e|---------------------------------------------------------------------------|
B|---------------------------------------------------------------------------|
G|---------2-2-2--2-2-2--9-9-9-----------------------------------------------|
D|--11-11--0-0-0--0-0-0--0-0-0-----x4----------------------------------------|
A|--0--0---0-0-0--4-4-4--111111----------------------------------------------|
D|--0—-0---0-0-0--4-4--—-111111----------------------------------------------|


2ND GUITAR INTRO (THE ADDED GUITAR IN THE RECORDING)
e|---------------------------------------------------------------------------|
B|---------------------------------------------------------------------------|
G|--6b7r6---YOU'LL KNOW WHAT I'M TALKING ABOUT WHEN YOU LISTEN TO THE SONG --|
D|---------------------------------------------------------------------------|
A|---------------------------------------------------------------------------|
D|---------------------------------------------------------------------------|

VERSES:
e|---------------------------------------------------------------------------|
B|-------------------------------------------------------0-~~----------------|
G|--2-2--2-2-2--2-2-2--9-9-9-----------------2-2--2-2-2--x-~~----------------|
D|--0-0--4-4-4--0-0-0--0-0-0-------x3 THEN---0-0--2-2-2--2-~~----------------|
A|--0-0--0-0-0--4-4-4--111111----------------0-0--0-0-0--2-~~----------------|
D|--0-0--0-0-0--4-4-4--111111----------------0-0--0-0-0--2-~~----------------|

e|---------------------------------------------------------------------------|
B|-------------------------------------------------------0-~~----------------|
G|--2-2--2-2-2--2-2-2--9-9-9-----------------2-2--2-2-2--x-~~----------------|
D|--0-0--4-4-4--0-0-0--0-0-0-------x3 THEN---0-0--2-2-2--2-~~---x2-----------|
A|--0-0--0-0-0--4-4-4--111111----------------0-0--0-0-0--2-~~----------------|
D|--0-0--0-0-0--4-4-4--111111----------------0-0--0-0-0--2-~~----------------|

BUILD UP TO CHORUS:
e|---------------------------------------------------------------------------|
B|---------------------------------------------------------------------------|
G|--6-6-6-6-6-6-6-6-9-9-9-9-9-9-9-9------------------------------------------|
D|--x-x-x-x-x-x-x-x-x-x-x-x-x-x-x-x------------------------------------------|
A|--4-4-4-4-4-4-4-4-7-7-7-7-7-7-7-7------------------------------------------|
D|---------------------------------------------------------------------------|

CHORUS:
e|---------------------------------------------------------------------------|
B|---------------------------------------------------------------------------|
G|--2-2-2--2-2-2--2-~~--------------------9-9-9-9-9----2-2-2-2-2-------------|
D|--2-2-2--2-2-2--0-~~-----x2 THEN--------0-0-0-0-0----0-0-0-0-0-----x2------|
A|--0-0-0--4-4-4--0-~~--------------------1111111111---0-0-0-0-0-------------|
D|--0-0-0--4-4-4--0-~~--------------------1111111111---0-0-0-0-0-------------|

BRIDGE INTO 2ND VERSE
e|---------------------------------------------------------------------------|
B|---------------------------------------------------------------------------|
G|--1/2---2-2-2—-1/2---2-2-2----------1/2---2-2-2--6-~~----------------------|
D|----2---2-2-2----2---2-2-2-----2-2----2---2-2-2--0-~~----------------------|
A|----0---0-0-0----0---0-0-0-----0-0----0---0-0-0--0-~~----------------------|
D|----0---0-0-0----0---0-0-0-----0-0----0---0-0-0--0-~~----------------------|           
                (HEY HEY)


*FIRST HALF OF VERSE THERE'S NO GUITAR BUT IN THE SECOND HALF PLAY THIS*

e|---------------------------------------------------------------------------|
B|-------------------------------------------------------0-~~----------------|
G|--2-2-2—6b7r6--2-2-2-9-9-9-9---------------------2--2--x-~~----------------|
D|--0-0-0--------0-0-0-x-x-x-x-----x3 THEN---------0--2--2-~~------x2--------|
A|--0-0-0--------4-4-4-11111111--------------------0--0--2-~~----------------|
D|--0-0-0--------4-4-4-11111111--------------------0--0--2-~~----------------|

BUILD UP TO 2nd CHORUS:
e|---------------------------------------------------------------------------|
B|---------------------------------------------------------------------------|
G|--6-6-6-6-6-6-6-6-9-9-9-9-9-9-9-9-1313131313131313-1414141414141414--------|
D|--x-x-x-x-x-x-x-x-x-x-x-x-x-x-x-x-x-x-x-x-x-x-x-x--x-x-x-x-x-x-x-x---------|
A|--4-4-4-4-4-4-4-4-7-7-7-7-7-7-7-7-1111111111111111-1212121212121212--------|
D|---------------------------------------------------------------------------|


REPEAT CHORUS TWICE BUT END THE SECOND WITH THIS:
e|---------------------------------------------------------------------------|
B|----------------------------------------------------------5-5--------------|
G|--9-9-9-9-9----2-2-2-2-2---9-9-9-9-9-------6b7r7-2--6b7r6-2-2--------------|
D|--0-0-0-0-0----0-0-0-0-0---0-0-0-0-0-------0-----0--0-----0------X2--------|
A|--1111111111---0-0-0-0-0---1111111111------0-----0--0-----0----------------|
D|--1111111111---0-0-0-0-0---1111111111------0-----0--0-----0----------------|


BRIDGE
e|-------------------------------------------------------------------------------|
B|-------------------------------------------------------------------------------|
G|--6-6----1-1----2-2----6b7-6b7-6----6-6----1-1----2-2----6-~-------------------|
D|---------------------------------------------------------0-~-----X2------------|
A|--7-7----2-2----4-4-----------------7-7----2-2----4-4----0-~-------------------|
D|--7-7----2-2----4-4-----------------7-7----2-2----4-4----0-~-------------------|
--|

e|-------------------------------------------------------------------------------|
B|-----------------5-5-----------------------------------------------------------|
G|--6b7r7-2--6b7r6-2-2-----------------------------------------------------------|
D|--0-----0--0-----0-----------------X2------------------------------------------|
A|--0-----0--0-----0-------------------------------------------------------------|
D|--0-----0--0-----0-------------------------------------------------------------|

*ONE CHORUS WITHOUT GUITAR THEN 2 CHORUS' WITH GUITAR*

*END WITH THIS*
e|---------------------------------------------------------------------------|
B|---------------------------------------------------------------------------|
G|--1/2---2-2-2—-1/2---2-2-2----------1/2---2-2-2--6-~~----------------------|
D|----2---2-2-2----2---2-2-2-----2-2----2---2-2-2--0-~~----------------------|
A|----0---0-0-0----0---0-0-0-----0-0----0---0-0-0--0-~~----------------------|
D|----0---0-0-0----0---0-0-0-----0-0----0---0-0-0--0-~~----------------------|           
                (HEY HEY)




************************************

| /   slide up
| \   slide down
| h   hammer-on
| p   pull-off
| ~   vibrato
| +   harmonic
| x   Mute note
| b   Bend
| pb  Pre-bend
| br  Bend release
| pbr Pre-bend release
| brb Bend release bend

************************************
Добавлено: 02.09.2013
Другие материалы по этой песне:
  • Аккорды и текст

Страница создана 02.09.2013
http://primanota.ru/the-xcerts/young-belane-chords.htm
Привет, Гость.
Предлагаем пройти революционный курс по гитаре.
Подарок от PrimaNota.Ru, забирай!