PrimaNota.ru - самый крупный в мире бесплатный архив песенных текстов, аккордов, табулатур и нот


The Xcerts - Lament - таба, видео

Регистрация Запомнить меня
Войти через:  Facebook Google Twitter Vk Yandex Mail.ru

The Xcerts - Lament - таба, видео

Печатать
Просмотров: 93
-------------------------------------------------------------------------------
                             LAMENT - The Xcerts
-------------------------------------------------------------------------------

| /  Slide up
| *  Strum
| p  Pull-off
| x  Muted
| ~  Let Ring
| () Occasionally Strum

Intro.
e|---------------------------------|
B|----------------------(0)--(0)---|
G|----------------------(0)--(0)---|
D|-2*----2p0-0-0--0*-----5*---0*---|  x4
A|-3*----3---3-3--x*-----7*---5*---|
E|-3*----3---3-3--3*--/--7*---7*---|

Verse Pt. 1 - Same as Intro. (let last chord ring) - x4
Verse Pt. 2 - Same as Intro. - x4

Bridge
|------|    |----------------------|   
|------|    |----------------------|    
|------|    |----------------------|    
|-4*---| x1 |-2*----2p0-0-0---4*---| x4
|-5*---|    |-3*----3---3-3-/-5*---|     
|-5*---|    |-3*----3---3-3-/-5*---|    

Chorus
|----------------|    |-----------------------|    |-----------------------|
|----------------|    |-----------------------|    |-----------------------|
|----------------|    |-----------------------|    |-----------------------|
|-5~---0~---2~---| x2 |-5~---0~---2*-2p0*--2*-|    |-5*---0*---2*-2p0*--2*-|
|-7~---5~---3~---|    |-7~---5~---3*-3--*--3*-|    |-7*---5*---3*-3--*--3*-|
|-7~---7~---3~---|    |-7~---7~---3*-3--*--3*-|    |-7*---7*---3*-3--*--3*-|

Verse - Same as Verse 1
Bridge - x1
Chorus - Strum All - x1

Outro.
|-------------------------| |----------------|   
|--------------(0)--(0)---| |(0)--(0)--(0)---|    
|--------------(0)--(0)---| |(0)--(0)--(0)---|   
|-4-4-4-4--0*---5*---0*---| |-0*---5*---0*---| x4 
|-5-5-5-5--5*---7*---5*---| |-x*---7*---5*---|    
|-5-5-5-5--3*---7*---7*---| |-3*---7*---7*---|    

Chorus - Let All Ring - x1

Well lately I've been scared
By things that aren't actually there
There's a girl who sleeps on my floor
But she just wants to be adored

And there's a man who stands by my bed
And he doesn't talk, he just stares instead
And when the drugs kicks in, they're gonna kick real hard
To stop my head from tearing apart (apart, apart, apart, apart)

With downcast eyes (I can see, yeah, I believe you are the one)
With downcast eyes (you can see that I'm not me anymore)
Cold
Lament is getting old

You both grip far too tight
For two hearts that got stolen in the night
I don't want to catch the thieves
You can continue to scream as I fall back asleep (asleep, asleep, asleep, asleep)

Chorus - x1

Please lay cold with me
Please lay cold with me
Please just lay cold with me
Please lay cold with me

Chorus - x1
Добавлено: 25.10.2013
Другие материалы по этой песне:
  • Аккорды и текст

Страница создана 25.10.2013
http://primanota.ru/the-xcerts/lament-chords.htm
Привет, Гость.
Предлагаем пройти революционный курс по гитаре.
Подарок от PrimaNota.Ru, забирай!