PrimaNota.ru - самый крупный в мире бесплатный архив песенных текстов, аккордов, табулатур и нот


The World Is A Beautiful Place I Am No Longer Afra - I Will Be Okay Everything - таба, видео

Регистрация Запомнить меня
Войти через:  Facebook Google Twitter Vk Yandex Mail.ru

The World Is A Beautiful Place I Am No Longer Afra - I Will Be Okay Everything - таба, видео

Печатать
Просмотров: 97
                               http://theworldisabeautifulplace.com/

Song: I Will Be Okay. Everything.
EP: Are Here To Help You (Split with Deer Leap) October 2011
Tuning: Standard

First time making a tab. This is just (roughly) the intro played a couple strings each. The real thing probably
differs a ton. But here's a general skeleton for you.

                                    -Isaac T


(/) Slide Up  (\) Slide Down  (h) Hammer On  (p) Pull Off  (b) Bend (r) Release (v) Vibrato

Opening Riff: Listen closely for timing.

Play 4x

E|-------------------------------------------------------------------------------------------------------------|
B|16--16--16--16--14-------------------------------------------------------------------------------------------|
G|--------------------16--18--18--18--18--18--16--15--16--16--15-----------------------------------------------|
D|----------------------------------------------------------------16--16--14--14--13--13--14--13------14p13----|
A|------------------------------------------------------------------------------------------------14--------14-|
E|-------------------------------------------------------------------------------------------------------------|


Second opening Riff: Again, listen for timing. Before each pull-off and after each hammer on,
there's a quick strum to the next note.

PLAY 5x

E|---------------------------------------------------------------------------------------|
B|---------------------------------------------------------------------------------------|
G|---------------------------------------------------------------------------------------|
D|--16--16--16--16--16-16p13--13--13--13--13-13h14--14--14--14--14-14p13-----------------|
A|------------------------------------------------------------------------14--14--14-----|
E|---------------------------------------------------------------------------------------|


Third Opening Riff: Listen for the pattern and timing as always.

Play 4x

E|---------------------------------------------------------------------------------|
B|---------------------------------------------------------------------------------|
G|---------------------------------------------------------------------------------|
D|---------------------------------------------------------------------------------|
A|--14--14--14--14--14--14--14p13--14--14--14----14--14\16--16--16--16/18--18--18--|
E|---------------------------------------------------------------------------------|


Buy everything by this band. They rule. Maybe someone will tab the rest.

************************************
Добавлено: 10.08.2015
Другие материалы по этой песне:
  • Аккорды и текст

Страница создана 10.08.2015
http://primanota.ru/the-world-is-a-beautiful-place-i-am-no-longer-afra/i-will-be-okay-everything-chords.htm
Привет, Гость.
Предлагаем пройти революционный курс по гитаре.
Подарок от PrimaNota.Ru, забирай!