PrimaNota.ru - самый крупный в мире бесплатный архив песенных текстов, аккордов, табулатур и нот


The World Is A Beautiful Place I Am No Longer Afra - Be Neon With Me - таба, видео

Регистрация Запомнить меня
Войти через:  Facebook Google Twitter Vk Yandex Mail.ru

The World Is A Beautiful Place I Am No Longer Afra - Be Neon With Me - таба, видео

Печатать
Просмотров: 119
Уроки эстрадного вокала в Санкт-Петербурге
http://www.theworldisabeautifulplace.com/

Be Neon With Me
The World is a Beautiful Place & I am No Longer Afraid to Die
Josh is Dead (2011)

Verse
Guitar 1:
   G       D  Bm C
e|-3-------5--2--3----------------------------------------------|
B|-3-------7--3--5----------------------------------------------|
G|-4-------7--4--5----------------------------------------------|
D|-5-------7--4--5----------------------------------------------|  x6
A|-5-------5--2--3----------------------------------------------|
E|-3------------------------------------------------------------|

Guitar 2:
e|--------------------------------------------------------------|
B|--------------------------------------------------------------|
G|-12--11--7--4--5----------------------------------------------|
D|--------------------------------------------------------------|  x2
A|-10--9---5--2--3----------------------------------------------|
E|--------------------------------------------------------------|

e|-7-10-7-------------------------------------------------------|
B|--------8-7-8---7-7-7-8-8-10----------------------------------|
G|--------------9--------------7---7----------------------------|
D|-------------------------------9---9-7-7-7-7------------------|   x2
A|---------------------------------------------10---------------|
E|------------------------------------------------10------------|

Guitar 3: (“…what it's like to eat lead”)
e|-7---7---7---7---12----12----12----12------------------------|
B|---8---8---8---8----13----13----13----13---------------------|
G|-------------------------------------------------------------|
D|-------------------------------------------------------------|   x6
A|-------------------------------------------------------------|
E|-------------------------------------------------------------|

Bridge
Guitar 1:
e|-------------------------------------------------------------|
B|-------------------------------------------------------------|
G|--7-7-7-7-7-7-7-7-7-7-7-7-7-7-7-7----------------------------|
D|--4/5-5-5-5-5-5-5-5-5-5-5-5-5-5-5----------------------------|   x6
A|-------------------------------------------------------------|
E|-------------------------------------------------------------|

Guitar 2: Enter after 2 repetitions of Guitar 1 part
e|---3-----5-----7---7h8---7h8---------------------------------|
B|-5---5/7---7/8---8-----8-----8-------------------------------|
G|-------------------------------------------------------------|
D|-------------------------------------------------------------|   x4
A|-------------------------------------------------------------|
E|-------------------------------------------------------------|

Screaming Part
Guitar 1:
e|-------------------------------------------------------------|
B|-------------------------------------------------------------|
G|-------4/5\4-------------------------------------------------|
D|-4--5--4/5\4-------------------------------------------------|   x4
A|-4--5--2/3\2-------------------------------------------------|
E|-2--3--------------------------------------------------------|

Guitar 2:
e|-----------------------------------------------------------------|
B|----8------------------------------------------------------------|
G|-------7-5-4-5---------------------------------------------------|
D|-4---------------------------------------------------------------|   x4
A|-----------------------------------------------------------------|
E|-----------------------------------------------------------------|

Guitar 1:
e|-------------------------------------------------------------|
B|-------------------------------------------------------------|
G|--7-7-7-7-7-7-7-7-7-7-7-7-7-7-7-7----------------------------|
D|--4/5-5-5-5-5-5-5-5-5-5-5-5-5-5-5----------------------------|   x2
A|-------------------------------------------------------------|
E|-------------------------------------------------------------|

Outro
Guitar 1:
   G       D  Bm C
e|-3-------5--2--3---------------------------------------------|
B|-3-------7--3--5---------------------------------------------|
G|-4-------7--4--5---------------------------------------------|
D|-5-------7--4--5---------------------------------------------|  x6
A|-5-------5--2--3---------------------------------------------|
E|-3-----------------------------------------------------------|
*Stay on Bm during last repetition

Guitar 2:
e|-7-10-7------------------------------------------------------|
B|--------8-7-8---7-7-7-8-8-10---------------------------------|
G|--------------9--------------7---7---------------------------|
D|-------------------------------9---9-7-7-7-7-----------------|   x2
A|---------------------------------------------10--------------|
E|------------------------------------------------10-----------|

e|-------------------------------------------------------------|
B|-12h15p15h15p12h15b17----------------------------------------|
G|-------------------------------------------------------------|
D|-------------------------------------------------------------|
A|-------------------------------------------------------------|
E|-------------------------------------------------------------|


************************************

| /   slide up
| \   slide down
| h   hammer-on
| p   pull-off
| ~   vibrato
| +   harmonic
| x   Mute note
| b   Bend
| pb  Pre-bend
| br  Bend release
| pbr Pre-bend release
| brb Bend release bend

************************************
Добавлено: 29.02.2012
Другие материалы по этой песне:
  • Аккорды и текст

Страница создана 29.02.2012
http://primanota.ru/the-world-is-a-beautiful-place-i-am-no-longer-afra/be-neon-with-me-chords.htm
Привет, Гость.
Предлагаем пройти революционный курс по гитаре.
Подарок от PrimaNota.Ru, забирай!