PrimaNota.ru - самый крупный в мире бесплатный архив песенных текстов, аккордов, табулатур и нот


The World Is A Beautiful Place I Am No Longer Afra - Autonsorialist - таба

Регистрация Запомнить меня
Войти через:  Facebook Google Twitter Vk Yandex Mail.ru

The World Is A Beautiful Place I Am No Longer Afra - Autonsorialist - таба

Печатать
Просмотров: 103
Уроки эстрадного вокала в Санкт-Петербурге
Guitar 1:
E|-------------------------------------------------|
B|----------------8--11--8--------8--11--8---------|
G|---------8--------------------------------10--8--|
D|--8--10-----10---------------8-------------------| This is played through the entire song till
A|-------------------------------------------------|          the drums + vocals outro
E|-------------------------------------------------|

Guitar 2:
E|------------------------------------------------------------------|
B|-----8--11--13--11--9--8-----8--9--8------------------------------|
G|--8-----------------------------------10-----10--10--10--8--7--8--|
D|------------------------------------------------------------------|  x1
A|------------------------------------------------------------------|
E|------------------------------------------------------------------|


B|---------------------11--13--11--9--8--8--9--8------------------------------|
G|--8--8--8--7--8--10-----------------------------10-----10--10--10--8--7--8--| x3


E|--------------------------------------------------|
B|--------------------------------------------------|
G|--------------------------------------------------|
D|---------5-x16------------------------------------| Repeated a ton till it fades to the drums + vocals.
A|--6-x16--3------6-x16--5-x8--8-x8-----------------|
E|--4-------------4------3-----6--------------------|
Добавлено: 13.12.2015
Другие материалы по этой песне:
  • Аккорды и текст

Страница создана 13.12.2015
http://primanota.ru/the-world-is-a-beautiful-place-i-am-no-longer-afra/autonsorialist-chords.htm
Привет, Гость.
Предлагаем пройти революционный курс по гитаре.
Подарок от PrimaNota.Ru, забирай!