PrimaNota.ru - самый крупный в мире бесплатный архив песенных текстов, аккордов, табулатур и нот


The Wonder Years - You Made Me Want To Be A Saint - аккорды и текст, бас-таба, видео

Регистрация Запомнить меня
Войти через:  Facebook Google Twitter Vk Yandex Mail.ru

The Wonder Years - You Made Me Want To Be A Saint - аккорды и текст, бас-таба, видео

Печатать
Просмотров: 176
Новый альбом группы 'Черный Кузнец' по культовому сериалу 'Сверхъестественное'!
You Made Me Want To Be A Saint
The Wonder Years
Drop C# is preferred, but not needed if you don't wanna tune.

CHORDS USED
If you don't want to turn to drop C#:
A: x022xx
B: x244xx
C#:x466xx
D: x577xx
Em:022xxx

If you tune to drop C#:
A: 555xxx
B: 777xxx
C#:999xxx
D: 000xxx
Em:222xxx



[Intro]

If not in Drop C#
D#|---------------------------------------------------------------------------|
A#|-----3---------------------------------------------------------------------|
F#|0h2p0-0-2-2-2-2-2-2-2-2-4-4-4-4-4-4-4-4-2-2-2-2-2-2-2-2--------------------|  x2
C#|--------2-2-2-2-2-2-2-2-4-4-4-4-4-4-4-4-2-2-2-2-2-2-2-2--------------------|
G#|--------0-0-0-0-0-0-0-0-2-2-2-2-2-2-2-2-0-0-0-0-0-0-0-0--------------------|
D#|---------------------------------------------------------------------------|

If in Drop C#:
D#|---------------------------------------------------------------------------|
A#|---------------------------------------------------------------------------|
F#|-----7---------------------------------------------------------------------|  x2
C#|5h7p5-5-5-5-5-5-5-5-5-5-7-7-7-7-7-7-7-7-5-5-5-5-5-5-5-5--------------------|
G#|--------5-5-5-5-5-5-5-5-7-7-7-7-7-7-7-7-5-5-5-5-5-5-5-5--------------------|
C#|--------5-5-5-5-5-5-5-5-7-7-7-7-7-7-7-7-5-5-5-5-5-5-5-5--------------------|

[Verse 1]
           D
It was how Dave said "us" like the last three years had never happened
           D             Em             A             Bm              
It was how George walked down and threw dirt onto the casket
           D      Em              A           Bm
It was how I know you would want this to be a fast one
    A            B   D
And not some cliché ballad

[Bridge]
             A B         C#       B
I'm slowing down in the August air
        A                 B      C#            B
A heavy heart and shaking hands carried you up here
         A  B      C#          B
I buried half of a decade there
            A
It was the better part
       B
You'd catch the reference
    C#
If only you could hear

[Verse 2]       
        D            Em     A       B               D          Em        A         B
Because I can still hear you in the bass drum beat after "I'll Catch You" I'm left wondering if 
D         Em            A         B
You meant anything when you typed out
     A             B       D
"You never got me down, Ray. I never went down"

[Break]
If not in Drop C#
D#|---------------------------------------------------------------------------|
A#|-----3---------------------------------------------------------------------|
F#|0h2p0-0-2-2-2-2-2-2-2-2-4-4-4-4-4-4-4-4-2-2-2-2-2-2-2-2--------------------|  x2
C#|--------2-2-2-2-2-2-2-2-4-4-4-4-4-4-4-4-2-2-2-2-2-2-2-2--------------------|
G#|--------0-0-0-0-0-0-0-0-2-2-2-2-2-2-2-2-0-0-0-0-0-0-0-0--------------------|
D#|---------------------------------------------------------------------------|

If in Drop C#:
D#|---------------------------------------------------------------------------|
A#|---------------------------------------------------------------------------|
F#|-----7---------------------------------------------------------------------|  x2
C#|5h7p5-5-5-5-5-5-5-5-5-5-7-7-7-7-7-7-7-7-5-5-5-5-5-5-5-5--------------------|
G#|--------5-5-5-5-5-5-5-5-7-7-7-7-7-7-7-7-5-5-5-5-5-5-5-5--------------------|
C#|--------5-5-5-5-5-5-5-5-7-7-7-7-7-7-7-7-5-5-5-5-5-5-5-5--------------------|

               A             B                   C#                 B
(You know the fucked up part is)I kind of always knew we'd have to write a song about this
              A               B           C#                       B
(You know the fucked up part is) I had my fingers crossed that it wouldn't be for you, kid
               A                           B                         C#
(You know the fucked up part is) It's been months, and I still have nightmares 
                                      B
(You know the fucked up part is) I'm never going back there
                A                      B
(You know the fucked up part is) The fucked up part is
               C#                      B
(You know the fucked up part is) The fucked up part is
  A
(Fuck)

************************************

| h   Hammer-on
| p   Pull-off

************************************
Добавлено: 05.04.2018
Другие материалы по этой песне:
  • Аккорды и текст

Страница создана 13.03.2016
http://primanota.ru/the-wonder-years/you-made-me-want-to-be-a-saint-chords.htm
Привет, Гость.
Предлагаем пройти революционный курс по гитаре.
Подарок от PrimaNota.Ru, забирай!