PrimaNota.ru - самый крупный в мире бесплатный архив песенных текстов, аккордов, табулатур и нот


The Wonder Years - We Wont Bury You - таба, видео

Регистрация Запомнить меня
Войти через:  Facebook Google Twitter Vk Yandex Mail.ru

The Wonder Years - We Wont Bury You - таба, видео

Печатать
Просмотров: 103
Авторы: The Wonder Years

Song: We Won't Bury You
Artist: The Wonder Years
Album: The Upsides

OK, so this is the last bonus track for the deluxe edition of The Upsides and I figured 
it out. I might have gotten some parts wrong, so if you see something that can be fixed, 
just comment a correction and I'll fit it in.

=============================================================================
Verse
=============================================================================
Gtr. - I had to let you know...
d#---------------------------------|---------------------------------|
A#---------------------------------|---------------------------------|
F#-0h2---2-----2---0h2---2-----2---|-0h2---2-----2---3p2---2-----2---|
C#-----3-----3---3-----3-----3---3-|---------------------------------|
G#---------------------------------|-----1-----1---1-----1-----1---1-|
C#-3-----3-----3---3-----3-----3---|-3-----3-----3---3-----3-----3---|

Gtr. - Of where you went wrong.
---------------------------------|---------------------------------|
---------------------------------|---------------------------------|
-2h3---3-----3---2h3---3-----3---|-5-----5-----5---7p5---5~--------|
-----0-----0---0-----0-----0---0-|-----0-----0---0-----0-----------|
---------------------------------|---------------------------------|
-0-----0-----0---0-----0-----0---|-0-----0-----0---0-----0~--------|

Gtr. - So from the deep south...
---------------------------------|---------------------------------|
---------------------------------|---------------------------------|
-0h2---2-----2---0h2---2-----2---|-0h2---2-----2---3p2---2-----2---|
-----3-----3---3-----3-----3---3-|---------------------------------|
---------------------------------|-----1-----1---1-----1-----1---1-|
-3-----3-----3---3-----3-----3---|-3-----3-----3---3-----3-----3---|

Gtr. - ...wish you well and got your voice mail.
---------------------------------|---------------------------------|
---------------------------------|---------------------------------|
-2h3---3-----3---2h3---3-----3---|-5-----5-----5---7p5---5~--------|
-----0-----0---0-----0-----0---0-|-----0-----0---0-----0-----------|
---------------------------------|---------------------------------|
-0-----0-----0---0-----0-----0---|-0-----0-----0---0-----0---------|

=============================================================================
Chorus
=============================================================================
Gtr. - So let me know...
--------------------------------|--------------------------------|
--------------------------------|--------------------------------|
-2h3---3-----5--5p3---3-----3---|-2h3---3-----5--5p3---3-----3---|
-----0-----0--------0-----0---0-|-----0-----0--------0-----0---0-|
--------------------------------|--------------------------------|
-0-----0-----0--0-----0-----0---|-0-----0-----0--0-----0-----0---|

Gtr. - We won't bury you.
--------------------------------|--------------------------------|
--------------------------------|--------------------------------|
-5-----5-----5---7p5---5----5---|---3~-----3~-----2~-------------|
-----0-----0---0-----0----0---0-|------------------------3~------|
--------------------------------|--------------------------------|
-3-----3-----3---3-----3----3---|---3------3------3------3-------|

=============================================================================
Post-Chorus
=============================================================================
Gtr.
---------------------------------|---------------------------------|
---------------------------------|---------------------------------|
-0h2---2-----2---0h2---2-----2---|-0h2---2-----2---3p2---2-----2---|
-----3-----3---3-----3-----3---3-|---------------------------------|
---------------------------------|-----1-----1---1-----1-----1---1-|
-3-----3-----3---3-----3-----3---|-3-----3-----3---3-----3-----3---|

Gtr.
---------------------------------|---------------------------------|
---------------------------------|---------------------------------|
-2h3---3-----3---2h3---3-----3---|-5-----5-----5---7p5---5~--------|
-----0-----0---0-----0-----0---0-|-----0-----0---0-----0-----------|
---------------------------------|---------------------------------|
-0-----0-----0---0-----0-----0---|-0-----0-----0---0-----0---------|

=============================================================================
Verse 2
=============================================================================
Gtr. - So I heard the news...
---------------------------------|---------------------------------|
---------------------------------|---------------------------------|
-0h2---2-----2---0h2---2-----2---|-0h2---2-----2---3p2---2-----2---|
-----3-----3---3-----3-----3---3-|---------------------------------|
---------------------------------|-----1-----1---1-----1-----1---1-|
-3-----3-----3---3-----3-----3---|-3-----3-----3---3-----3-----3---|

Gtr. - But the words still ring true.
---------------------------------|---------------------------------|
---------------------------------|---------------------------------|
-2h3---3-----3---2h3---3-----3---|-5-----5-----5---7p5---5~--------|
-----0-----0---0-----0-----0---0-|-----0-----0---0-----0-----------|
---------------------------------|---------------------------------|
-0-----0-----0---0-----0-----0---|-0-----0-----0---0-----0---------|

Gtr. - We'll all forgive you...
---------------------------------|---------------------------------|
---------------------------------|---------------------------------|
-0h2---2-----2---0h2---2-----2---|-0h2---2-----2---3p2---2-----2---|
-----3-----3---3-----3-----3---3-|---------------------------------|
---------------------------------|-----1-----1---1-----1-----1---1-|
-3-----3-----3---3-----3-----3---|-3-----3-----3---3-----3-----3---|

Gtr. - ...better than this and don't end up like he did.
---------------------------------|---------------------------------|
---------------------------------|---------------------------------|
-2h3---3-----3---2h3---3-----3---|-5-----5-----5---7p5---5~--------|
-----0-----0---0-----0-----0---0-|-----0-----0---0-----0-----------|
---------------------------------|---------------------------------|
-0-----0-----0---0-----0-----0---|-0-----0-----0---0-----0---------|

=============================================================================
Chorus
=============================================================================
Gtr. - And I guess it's none of my business...
--------------------------------|--------------------------------|
--------------------------------|--------------------------------|
-2h3---3-----5--5p3---3-----3---|-2h3---3-----5--5p3---3-----3---|
-----0-----0--------0-----0---0-|-----0-----0--------0-----0---0-|
--------------------------------|--------------------------------|
-0-----0-----0--0-----0-----0---|-0-----0-----0--0-----0-----0---|

Gtr. - But I hope you're well old friend.
--------------------------------|--------------------------------|
--------------------------------|--------------------------------|
-5-----5-----5---7p5---5----5---|---3~-----3~-----2~-------------|
-----0-----0---0-----0----0---0-|------------------------3~------|
--------------------------------|--------------------------------|
-3-----3-----3---3-----3----3---|---3------3------3------3-------|

I had to let you know
That everyone back home
Passed on the word
Of where you went wrong.
So from the deep south
Outside a Waffle House
I called to wish you well
And got your voice mail.
So let me know if there's something we can do
Cause we won't bury you.

So I heard the news
And your Get Up Kids tattoos
Mean something new
But the words still ring true.
Cause we'll all forgive you
But you can't forget
That you know better than this
Don't end up like he did.
And I guess it's none of my business
But I hope you're well, old friend.
Добавлено: 22.06.2012
Другие материалы по этой песне:

Страница создана 05.06.2012
http://primanota.ru/the-wonder-years/we-wont-bury-you-chords.htm
Привет, Гость.
Предлагаем пройти революционный курс по гитаре.
Подарок от PrimaNota.Ru, забирай!