PrimaNota.ru - самый крупный в мире бесплатный архив песенных текстов, аккордов, табулатур и нот


The Wonder Years - The Upsides (album) - бас-таба, видео

Регистрация Запомнить меня
Войти через:  Facebook Google Twitter Vk Yandex Mail.ru

The Wonder Years - The Upsides (album) - бас-таба, видео

Печатать
Просмотров: 65
THE WONDER YEARS - THE UPSIDES

tabbed by: Ashy (XxThreeCheersxX)
email: burdickash@gmail.com

NOTE: All of these songs are tabbed by me, from ear.  They are all also posted individually on this site.

TUNING: DROP C# (C# G# C# F#)

TRACKLIST
1. My Last Semester
2. Logan Circle
3. Everything I Own Fits In This Backpack
4. Dynamite Shovel
5. New Years With Carl Weathers
6. It's Never Sunny In South Philadelphia
7. Hostels and Brothels
8. Melrose Diner
9. This Party Sucks
10. Hey Thanks
11. Washington Square Park
12. All My Friends Are In Bar Bands

TRACK 1 - MY LAST SEMESTER

Intro (no bass)

Verse I
F#|-----------------------------------------------------------------|
C#|-----------------------------------------------------------------|
G#|-3-3-3-3-3-3-3-3-3-3-3-3-3-3-3-3-3-3-3-3-3-3-3-3-3-3-3-3-3-3-3-3-|
C#|-----------------------------------------------------------------|

F#|-----------------------------------------------------------------|
C#|-----------------------------------------------------------------|
G#|-----------------------------------------------------------------|
C#|-3-3-3-3-3-3-3-3-3-3-3-3-3-3-3-3-3-3-3-3-3-3-3-3-3-3-3-3-3-3-3-3-|

F#|-----------------------------------------------------------------|
C#|-----------------------------------------------------------------|
G#|-5-5-5-5-5-5-5-5-5-5-5-5-5-5-5-5-5-------------------------------|
C#|-----------------------------------5-5-5-5-5-5-5-5-5-5-5-5-5-5-5-|

F#|-----------------------------------------------------------------|
C#|-----------------------------------------------------------------|
G#|-3-3-3-3-3-3-3-3-3-3-3-3-3-3-3-3-3-3-3-3-3-3-3-3-3-3-3-3-3-3-3-3-|
C#|-----------------------------------------------------------------|

F#|-----------------------------------------------------------------|
C#|-----------------------------------------------------------------|
G#|-----------------------------------------------------------------|
C#|-3-3-3-3-3-3-3-3-3-3-3-3-3-3-3-3-3-3-3-3-3-3-3-3-3-3-3-3-3-3-3-3-|

F#|-----------------------------------------------------------------|
C#|-----------------------------------------------------------------|
G#|-5-5-5-5-5-5-5-5-5-5-5-5-5-5-5-5-5-5-5-5-5-5-5-5-5-5-5-5-5-5-5-5-|
C#|-----------------------------------------------------------------|

F#|------------------------------------------------|
C#|------------------------------------------------|
G#|------------------------------------------------|
C#|-5--5--5--5--5--5--5--5----3--3--3--3--3--3--3--|

Pre-Chorus ("Trying to convince freshmen they're somebody")
F#|-----------------------------------|
C#|-----------------------------------|
G#|-3--3--3--5--5--5------------------| x 2
C#|-------------------2--3----3--3----|

"I don't fit in!"
F#|-----------------------|
C#|-----------------------|
G#|-----------------------|
C#|-7--7--7--5----7--7----|

F#|-----------------------------------|
C#|-----------------------------------|
G#|-3--3--3--5--5--5------------------| x 2
C#|-------------------2--3----3--3----|

F#|---------------------------------------------------------------------------|
C#|---------------------------------------------------------------------------| ("College hit those dudes
G#|-3--3--3--3--3--3--3--3--3--5--5--5--5--5--5--5--5-------------------------| like a ton of bricks")
C#|----------------------------------------------------7x---------------------|

Chorus I
F#|-------------------------------------------------------------------------------------------------|
C#|-------------------------------------------------------------------------------------------------|
G#|-3--3--3--3--2--2--2--2--0--0--0--0--------------------------------------------------------------| x 2
C#|-------------------------------------5--5--5--5--0--0--0--0--0--0--0--0--3--3--3--3--3--3--3--3--|

"I don't fit in with any of this, and I don't think we're the same"
F#|---------------------------------------------------------------------------|
C#|---------------------------------------------------------------------------|
G#|-0--0----3--3---------------------0--0----3--3-----------------------------|
C#|-----------------3--3------5----------------------3--3---------------------|

Post-Chorus
F#|------------------------------|
C#|------------------------------|
G#|------------------------------| x 2
C#|-3---3---5------3---3---3-----|

Verse II (come in at "sappy bullshit")
F#|---------------|
C#|---------------|
G#|---------------|
C#|-5~------------|

F#|-----------------------------------------------------------------|
C#|-----------------------------------------------------------------|
G#|-3-3-3-3-3-3-3-3-3-3-3-3-3-3-3-3-3-3-3-3-3-3-3-3-3-3-3-3-3-3-3-3-|
C#|-----------------------------------------------------------------|

F#|-----------------------------------------------------------------|
C#|-----------------------------------------------------------------|
G#|-----------------------------------------------------------------|
C#|-3-3-3-3-3-3-3-3-3-3-3-3-3-3-3-3-3-3-3-3-3-3-3-3-3-3-3-3-3-3-3-3-|

F#|-----------------------------------------------------------------|
C#|-----------------------------------------------------------------|
G#|-5-5-5-5-5-5-5-5-5-5-5-5-5-5-5-5-5-5-5-5-5-5-5-5-5-5-5-5-5-5-5-5-|
C#|-----------------------------------------------------------------|

F#|-----------------------------------------------------------------|
C#|-----------------------------------------------------------------|
G#|-----------------------------------------------------------------|
C#|-5-5-5-5-5-5-5-5-5-5-5-5-5-5-5-5-3-3-3-3-3-3-3-3-3-3-3-3-3x------|

Chorus II
F#|-------------------------------------------------------------------------------------------------|
C#|-------------------------------------------------------------------------------------------------|
G#|-3--3--3--3--2--2--2--2--0--0--0--0--------------------------------------------------------------| x 2
C#|-------------------------------------5--5--5--5--0--0--0--0--0--0--0--0--3--3--3--3--3--3--3--3--|

"I don't fit in with any of this, and I don't think we're the same"
F#|-----------------------------------------------------------|
C#|-----------------------------------------------------------|
G#|-0~-----------------------0---0------3---3-----------------|
C#|------------------5--5--------------------------3---3------|

Bridge
F#|---------------------------------------------------------------------------|
C#|---------------------------------------------------------------------------|
G#|-0--0----3--3---------------------0--0----3--3-----------------------------| x 2
C#|-----------------3--3------5----------------------3--3---------------------|

"I'm not sad anymore, I'm just waiting"
F#|--------------------------------------------|
C#|--------------------------------------------|
G#|--------------------------------------------| x 4 
C#|-3----3----3--3--3--3----3----3--3--3--3----|

Final Chorus
F#|-------------------------------------------------------------------------------------------------|
C#|-------------------------------------------------------------------------------------------------|
G#|-3--3--3--3--2--2--2--2--0--0--0--0--------------------------------------------------------------| 
C#|-------------------------------------5--5--5--5--0--0--0--0--0--0--0--0--3--3--3--3--3--3--3--3--|

F#|-------------------------------------------------------------------------------------------------|
C#|-------------------------------------------------------------------------------------------------|
G#|-3--3--3--3--2--2--2--2--0--0--0--0--------------------------------------------------------------| 
C#|-------------------------------------5--5--5--5--0--0-----0-----0-----0--3--3-----3--3--3--3-----|

F#|-------------------------------------------------------------------------------------------------|
C#|-------------------------------------------------------------------------------------------------|
G#|-3-----------2-----------0-----------------------------------------------------------------------|
C#|-------------------------------------5-----------0--0--0--0--0--0--0--0--3--3--3--3--3--3--3-----|



TRACK 2 - LOGAN CIRCLE


Intro
F#|-----------------------------------------------------------|
C#|-----------------------------------------------------------|
G#|-5~--------2~--------0~------------------------------------|
C#|-------------------------------5-5--5-4-4--4-5-5--5-4-4--4-|

Verse I
F#|-----------------------------------------------------------------|
C#|-----------------------------------------------------------------|
G#|-5-5-5-5-5-5-5-5-5-5-5-5-5-5-5-5-2-2-2-2-2-2-2-2-2-2-2-2-2-2-2-2-|
C#|-----------------------------------------------------------------|

F#|-------------------------------------------------------------|
C#|-------------------------------------------------------------|
G#|-0-0-0-0-0-0-0-0-0-0-0-0-0-0-0-0-----------------------------|
C#|---------------------------------5-5-5-5-5--5--4-4-4-4-4--4--|

Pre-Chorus x 2
F#|-----------------------------------------------------|
C#|-----------------------------------------------------|
G#|---------------------------5-5--5-5-5--5-2-2--2-0----|
C#|-5-5--5-5-5--5-7-7--7-7------------------------------|

F#|-----------------------------------------------------------|
C#|-----------------------------------------------------------|
G#|---------------------------5-5-5-5-5-5-5-5-5-5-5-5-5-5-5-5-|
C#|-5-5--5-5-5--5-7-7--7-7------------------------------------|

Chorus
F#|-----------------------------------------------------------------------------------------------------|
C#|-----------------------------------------------------------------------------------------------------|
G#|--------------------------------------------------------------------------------------5-7--5-7-5-----|
C#|-5--5--5--7----7--7--7--4--4--4--5----5--5--5--5--5--5--7----7--7--7--0--------------------------9-7-|

F#|---------------------------------------------------------------------------|
C#|---------------------------------------------------------------------------|
G#|------------------------------------------------------------5-7--5-7-5-----|
C#|-5--5--5--7----7--7--7--4--4--4--5----5--5--5--5--5--5--7x-------------9-7-|

F#|------------------------------------|
C#|------------------------------------|
G#|------------------5~----------------|
C#|-7~---------------------------------|

Verse II
F#|-----------------------------------------------------------------|
C#|-----------------------------------------------------------------|
G#|-5-5-5-5-5-5-5-5-5-5-5-5-5-5-5-5-2-2-2-2-2-2-2-2-2-2-2-2-2-2-2-2-|
C#|-----------------------------------------------------------------|

F#|-------------------------------------------------------------|
C#|-------------------------------------------------------------|
G#|-0-0-0-0-0-0-0-0-0-0-0-0-0-0-0-0-----------------------------|
C#|---------------------------------5-5-5-5-5--5--4-4-4-4-4--4--|

F#|-----------------------------------------------------------------|
C#|-----------------------------------------------------------------|
G#|-5-5-5-5-5-5-5-5-5-5-5-5-5-5-5-5-2-2-2-2-2-2-2-2-2-2-2-2-2-2-2-2-|
C#|-----------------------------------------------------------------|

F#|-------------------------------------------------------------|
C#|-------------------------------------------------------------|
G#|-0-0-0-0-0-0-0-0-0x------------------------------------------|
C#|---------------------------------5-5-5-5-5--5--4-4-4-4-4--4--|

Pre-Chorus II
F#|--------------------------------------------------------------------|
C#|--------------------------------------------------------------------|
G#|------------------5-------2----0------------------------------------| x 2
C#|-5-------7-----7--------------------5-------7------7--0-------------|

Chorus II
F#|-----------------------------------------------------------------------------------------------------|
C#|-----------------------------------------------------------------------------------------------------|
G#|--------------------------------------------------------------------------------------5-7--5-7-5-----|
C#|------------------------4--4--4--5----5--5--5--5--5--5--7----7--7--7--0--------------------------9-7-|

F#|---------------------------------------------------------------------------|
C#|---------------------------------------------------------------------------|
G#|------------------------------------------------------------5-7--5-7-5-----|
C#|-5--5--5--7----7--7--7--4--4--4--5----5--5--5--5--5--5--7x-------------9-7-|

F#|------------------------------------|
C#|------------------------------------|
G#|------------------5~----------------|
C#|-7~---------------------------------|

Bridge/Chorus Variation (come in on the second time saying "they turned on the fountain today")
F#|-----------------------------------------|
C#|-----------------------------------------|
G#|-----------------------------------------|
C#|-5~------/7~--------/12~-----------------|

F#|-------------------------------------------------------------------------------------------------|
C#|-------------------------------------------------------------------------------------------------|
G#|-------------------------------------------------------------------------------------------------|
C#|-5--5--5--5--7--7--7--7--4--4--4--4--5--5--5--5--5--5--5--5--7--7--7--7--0--0--0--0--0--0--0--0--|

F#|------------------------------------------------------------------------------------------------|
C#|------------------------------------------------------------------------------------------------|
G#|------------------------------------------------------------------------------------------------|
C#|-5--5--5--5--7--7--7--7--4--4--4--4--5--5--5--5--5--5--5--5--7--7--7--7--7--7--7--7--7--7--7----|

Final Chorus
F#|-----------------------------------------------------------------------------------------------------|
C#|-----------------------------------------------------------------------------------------------------|
G#|--------------------------------------------------------------------------------------5-7--5-7-5-----|
C#|-5--5--5--7----7--7--7--4--4--4--5----5--5--5--5--5--5--7----7--7--7--0--------------------------9-7-|

F#|---------------------------------------------------------------------------|
C#|---------------------------------------------------------------------------|
G#|------------------------------------------------------------5-7--5-7-5-----|
C#|-5--5--5--7----7--7--7--4--4--4--5----5--5--5--5--5--5--7x-------------9-7-|

F#|-----------------------------------------------------------------------------------------------------|
C#|-----------------------------------------------------------------------------------------------------|
G#|--------------------------------------------------------------------------------------5-7--5-7-5-----|
C#|-5--5--5--7----7--7--7--4--4--4--5----5--5--5--5--5--5--7----7--7--7--0--------------------------9-7-|

F#|---------------------------------------------------------------------------|
C#|---------------------------------------------------------------------------|
G#|---------------------------------------------------------------------------|
C#|-5--5--5--7x------------4--4--4--5x------------5--5--5--7x--------7--------|




TRACK 3 - EVERYTHING I OWN FITS IN THIS BACKPACK


Intro
F#|-------------------------------------------------------------------------|
C#|-------------------------------------------------------------------------|
G#|-5~----------------------------------------------------------------------|
C#|-----------------5~----------------2~--------4~--------5~----------------|

Chorus/Main Riff x 2
F#|----------------------------------------------------------------|
C#|----------------------------------------------------------------|
G#|-5--5-5---------------------------------------------------------| 
C#|--------7-5--5-5-9-9-9--7--7--7-0--0-0-0-5--5-5-2-2-2-2-5-5-5-5-|

Verse x 2
F#|-------------------------------------------------------------------|
C#|-------------------------------------------------------------------|
G#|-5-5-5-5-5-5-5-5-5-5-5-5-5-5-5-5-----------------------------------|
C#|---------------------------------5-5-5-5-5-5-5-5-5-5-5-5-5-5-5-5-5-|

F#|-------------------------------------------------------------------|
C#|-------------------------------------------------------------------|
G#|-------------------------------------------------------------------|
C#|-2-2-2-2-2-2-2-2-4-4-4-4-4-4-4-4-5-5-5-5-5-5-5-5-5-5-5-5-5-5-5-5-5-|

Pre-Chorus
F#|---------------------|
C#|---------------------|
G#|------------5-5-5-5x-| x 3
C#|---------------------|

F#|----------------------------|
C#|----------------------------|
G#|------------5-5-5-5-5-5-5-5-|
C#|----------------------------|

Chorus/Main riff x 2

Post-Chorus
F#|-----------------------------------------|
C#|-----------------------------------------|
G#|-----------------------------------------|
C#|-5~----------------5-5-7~----------------|

Verse x 2

Pre-Chorus II
F#|------------------|
C#|------------------|
G#|------------------|
C#|----------5-5-5-5-|

chorus/Main Riff x 2

Bridge
F#|---------------------------------------------------------------------------------------|
C#|---------------------------------------------------------------------------------------|
G#|---------------------------------------------------------------------------------------|
C#|-5~---------------5-5-7~---------------7-7-5~---------------5-5-7~----------------7-7--|

F#|-----------------------------------------------------------------|
C#|-----------------------------------------------------------------|
G#|-----------------------------------------------------------------|
C#|-5-5-5-5-5-5-5-5-5-5-5-5-5-5-5-5-7-7-7-7-7-7-7-7-7-7-7-7-7-7-7-7-|

F#|---------------------------------------------------------------------|
C#|---------------------------------------------------------------------|
G#|---------------------------------------------------------------------|
C#|-9-9-9-9-9-9-9-9-9-9-9-9-9-9-9-9-7-7-7-7-7-7-7-7-7----7----7----7----|

F#|-----------------------------------------------------------------|
C#|-----------------------------------------------------------------|
G#|-----------------------------------------------------------------|
C#|-5-5-5-5-5-5-5-5-5-5-5-5-5-5-5-5-7-7-7-7-7-7-7-7-7-7-7-7-7-7-7-7-|

F#|-----------------------------------------------------------------|
C#|-----------------------------------------------------------------|
G#|-----------------------------------------------------------------|
C#|-9-9-9-9-9-9-9-9-9-9-9-9-9-9-9-9-7-7-7-7-7-7-7-7-7-7-7-7-7-7-7-7-|

(played very quietly)
F#|---------------------------------------------------------------------------|
C#|---------------------------------------------------------------------------|
G#|---------------------------------------------------------------------------|
C#|-5-5-5-5-5-5-5-5-5-5-5-5-5-5-5-5-7-7-7-7-7-7-7-7-7-------------------------|

Final Chorus
F#|----------------------------------------------------------------|
C#|----------------------------------------------------------------|
G#|-5--5-5---------------------------------------------------------| 
C#|--------7-----------------------0--0-0-0-5--5-5-2-2-2-2-5-5-5-5-|

F#|----------------------------------------------------------------|
C#|----------------------------------------------------------------|
G#|-5--5-5---------------------------------------------------------| x 2
C#|--------7-5--5-5-9-9-9--7--7--7-0--0-0-0-5--5-5-2-2-2-2-5-5-5-5-|

F#|---------------------------------------|
C#|---------------------------------------|
G#|-5~------------------------------------|
C#|---------------------------------------|

Outro
F#|-----------------------------------------------------------------|
C#|-----------------------------------------------------------------|
G#|-5-5-5-5-5-5-5-5-5-5-5-5-5-5-5-5---------------------------------|
C#|---------------------------------5-5-5-5-5-5-5-5-5-5-5-5-5-5-5-5-|

F#|-----------------------------------------------------------------|
C#|-----------------------------------------------------------------|
G#|-----------------------------------------------------------------|
C#|-2-2-2-2-2-2-2-2-4-4-4-4-4-4-4-4-5-5-5-5-5-5-5-5-5-5-5-5-5-5-5-5-|




TRACK 4 - DYANAMITE SHOVEL


Intro
F#|--------------------------------------------------------------------------------------------|
C#|--------------------------------------------------------------------------------------------|
G#|-2------------------------------------------------------------2-2-2-2-----------------------|
C#|------4-4----5--5-5-5-5-5-5-5-5-0--0--4-4--5--5-5-5-5-5-5-5-5---------4-4-4-4-5-5-5-5-5x----|

Verse
F#|-----------------------------------------------------------------|
C#|-----------------------------------------------------------------|
G#|-5-5-5-5-5-5-5-5-5-5-5-5-5-5-5-5---------------------------------|
C#|---------------------------------5-5-5-5-5-5-5-5-7-7-7-7-7-7-7-7-|

F#|---------------------------------------------------------------|
C#|---------------------------------------------------------------|
G#|-5-5-5-5-5-5-5-5-9----7----5-----------------------------------|
C#|-------------------------------5-5-5-5-5-5-5-5-7-7-7-7-7-7-7-7-|

F#|-----------------------------------------------------------------|
C#|-----------------------------------------------------------------|
G#|-5-5-5-5-5-5-5-5-5-5-5-5-5-5-5-5---------------------------------|
C#|---------------------------------5-5-5-5-5-5-5-5-7-7-7-7-7-7-7-7-|

F#|---------------------------------------------------------------|
C#|---------------------------------------------------------------|
G#|-5-5-5-5-5-5-5-5-5----7----9-----------------------------------|
C#|-------------------------------5-5-5-5-5-5-5-5-7-7-7-7-9-9-9-9-|

Chorus
F#|-----------------------------------------------------------------|
C#|-----------------------------------------------------------------|
G#|---------------------------------2-2-2-2-2-2-2-2-4-4-4-4-5-5-5-5-|
C#|-5-5-5-5-5-5-5-5-4-4-4-4-4-4-4-4---------------------------------|

F#|-----------------------------------------------------------------|
C#|-----------------------------------------------------------------|
G#|---------------------------------5-5-5-5---------5-5-5-5---------|
C#|-5-5-5-5-5-5-5-5-4-4-4-4-4-4-4-4---------0-0-0-0---------0-0-0-0-|

F#|---------------------------|
C#|---------------------------|
G#|-2x----2x----4--4--4-4-4-4-|
C#|---------------------------|

Bridge
F#|-----------------------------------------------------------------|
C#|-----------------------------------------------------------------|
G#|-----------------------------------------------------------------|
C#|-0-0-0-0-0-0-0-0-7-7-7-7-7-7-7-7-5-5-5-5-5-5-5-5-4-4-4-4-4-4-4-4-|

F#|-----------------------------|
C#|-----------------------------|
G#|-----------------------------|
C#|-0-0-0-0-0-0-0-0-0--0--0--0--|

Outro
F#|-----------------------------------------------------------|
C#|-----------------------------------------------------------|
G#|------------------------------2--2-------------------------|
C#|-0--0--4-4-4-5--5-5-5-5-5-5-5-------4-4-4-5--5-5-5-5-5-5-5-|

F#|---------------------------------------------------------------------------|
C#|---------------------------------------------------------------------------|
G#|------------------------------2-2-2-2--------------------------------------|
C#|-0--0--4-4-4-5--5-5-5-5-5-5-5---------4-4-4-4-5-5-5-5-5---0~---------------|




TRACK 5 - NEW YEARS WITH CARL WEATHERS


Verse I
F#|----------------------------------------------------------------|
C#|----------------------------------------------------------------|
G#|-3--3-3-3-3-3-3-3-3-3-3-3-3-3-3---------------------------------|
C#|--------------------------------5-5-5-5-5-5-5-5-5-5-5-5-5-5-5-5-|

F#|-----------------------------------------------------------------|
C#|-----------------------------------------------------------------|
G#|-----------------------------------------------------------------|
C#|-7-7-7-7-7-7-7-7-2-2-2-2-2-2-2-2-3-3-3-3-3-3-3-3-3-3-3-3-3-3-3-3-|

"Cause it's New Years Eve and it's 4 degrees"
F#|----------------------------------------------------------------------------------------|
C#|----------------------------------------------------------------------------------------|
G#|-3x---------------------------------------------------3-3-3-3-3-3-3-3-------------------|
C#|-------------------7~--------5~-------3-3-3-3-3-3-3-3-----------------5-5-5-5-5-5-5-5-5-|

F#|----------------------------------------------------------------|
C#|----------------------------------------------------------------|
G#|-3--3-3-3-3-3-3-3-3-3-3-3-3-3-3---------------------------------|
C#|--------------------------------5-5-5-5-5-5-5-5-5-5-5-5-5-5-5-5-|

F#|-----------------------------------------------------------------|
C#|-----------------------------------------------------------------|
G#|-----------------------------------------------------------------|
C#|-7-7-7-7-7-7-7-7-2-2-2-2-2-2-2-2-3-3-3-3-3-3-3-3-x-x-x-x-x-x-x-x-|

F#|-----------------------------------------------------------------|
C#|-----------------------------------------------------------------|
G#|-3-3-3-3-3-3-3-3-3-3-3-3-3-3-3-3---------------------------------|
C#|---------------------------------5-5-5-5-5-5-5-5-3~--------------|

Pre-Chorus
F#|------------------------------------------------------------------------|
C#|------------------------------------------------------------------------|
G#|------------------------------------------------------------------------|
C#|-2----3-3----3-3-5----5-7-7-7-10-7-7-2-2-3-3----3-3-5-x-x-x-x-x-x-x-x-x-|

Chorus
F#|-----------------------------------------------------------------|
C#|-----------------------------------------------------------------|
G#|-3-3-3-3-3-3-3-3-------------------------------------------------|
C#|-----------------7-7-7-7-7-7-7-7-3-3-3-3-3-3-3-3-3-3-3-3-3-3-3-3-|

F#|-----------------------------------------------------------------|
C#|-----------------------------------------------------------------|
G#|-----------------------------------------------------------------|
C#|-7-7-7-7-7-7-7-7-3-3-3-3-3-3-3-3-2-2-2-2-2-2-2-2-2-2-2-2-2-2-2-2-|

F#|--------------------------------------------------------------|
C#|--------------------------------------------------------------|
G#|---3--3-3-3-3-------------------------------------------------|
C#|--------------7-7-7-7-7-7-7-7-3-3-3-3-3-3-3-3-3-3-3-3-3-3-3-3-|

F#|----------------------------------------------|
C#|----------------------------------------------|
G#|----------------------------------------------|
C#|-5~--------4~-------3-3-3-3-3-3-3-3-3x----14\-|

Post-Chorus
F#|------------------------------------------------------------------------|
C#|------------------------------------------------------------------------|
G#|------------------------------------------------------------------------|
C#|-2----3-3----3-3-5----5-7-7-7-10-7-7-2-2-3-3----3-3-5-x-x-x-5~----------|

Verse II
F#|-------------------------------------------------------------------------------------------------|
C#|-------------------------------------------------------------------------------------------------|
G#|-3--3--3--3--3--3--3--3--------------------------------------------------------------------------|
C#|-------------------------5--5--5--5--5--5--5--5--7--7--7--7--2--2--2--2--3--3--3--3--3--3--3--3--|

F#|-------------------------------------------------------------------------------------------------|
C#|-------------------------------------------------------------------------------------------------|
G#|-3--3--3--3--3--3--3--3--------------------------------------------------------------------------|
C#|-------------------------------5--5--5--5--5--5--7--7--7--7--2--2--2--2--3~----------------------|

Chorus II
F#|-----------------------------------------------------------------|
C#|-----------------------------------------------------------------|
G#|-3-3-3-3-3-3-3-3-------------------------------------------------|
C#|-----------------7-7-7-7-7-7-7-7-3-3-3-3-3-3-3-3-3-3-3-3-3-3-3-3-|

F#|-----------------------------------------------------------------|
C#|-----------------------------------------------------------------|
G#|-----------------------------------------------------------------|
C#|-7-7-7-7-7-7-7-7-3-3-3-3-3-3-3-3-2-2-2-2-2-2-2-2-2-2-2-2-2-2-2-2-|

F#|--------------------------------------------------------------|
C#|--------------------------------------------------------------|
G#|---3--3-3-3-3-------------------------------------------------|
C#|--------------7-7-7-7-7-7-7-7-3-3-3-3-3-3-3-3-3-3-3-3-3-3-3-3-|

F#|----------------------------------------------|
C#|----------------------------------------------|
G#|----------------------------------------------|
C#|-5~--------4~-------3~------------------------|

Bridge (come in at "hey man i'll see you in cleveland")
F#|-----------------------------------------------------------------|
C#|-----------------------------------------------------------------|
G#|---------------------------------3-3-3-3-3-3-3-3-----------------|
C#|-2-2-2-2-2-2-2-2-3-3-3-3-3-3-3-3-----------------5-5-5-5-5-5-5-5-|

F#|-----------------------------------------------------------------|
C#|-----------------------------------------------------------------|
G#|-----------------------------------------------------------------|
C#|-2-2-2-2-2-2-2-2-3-3-3-3-3-3-3-3-5-5-5-5-5-5-5-5-5x--5x--5x--5x--|

F#|-------------------------------------------------|
C#|-------------------------------------------------|
G#|-------------------------------------------------|
C#|-2--2--2--2--3--3--3--3--5--5--5--5--5--5--5x----|

F#|-----------------------------------------------------------------|
C#|-----------------------------------------------------------------|
G#|---------------------------------3-3-3-3-3-3-3-3-----------------|
C#|-2-2-2-2-2-2-2-2-3-3-3-3-3-3-3-3-----------------5-5-5-5-5-5-5-5-|

"Tell the universe we're not concerned"
F#|---------------------------------------------------------------------------------|
C#|---------------------------------------------------------------------------------|
G#|---------------------3~----------------------------------------------------------|
C#|-2~--------3~-----------------5-5----5----2~------2--3~-----3-5~-------5----5----|

F#|---------------------------------------------------------------------------|
C#|---------------------------------------------------------------------------|
G#|---------------------3~----------------------------------------------------|
C#|-2~-------3~------------------5-5----5----2--------------------------------|

Pre-Chorus 

Final Chorus
F#|-----------------------------------------------------------------|
C#|-----------------------------------------------------------------|
G#|-3-3-3-3-3-3-3-3-------------------------------------------------|
C#|-----------------7-7-7-7-7-7-7-7-3-3-3-3-3-3-3-3-3-3-3-3-3-3-3-3-|

F#|-----------------------------------------------------------------|
C#|-----------------------------------------------------------------|
G#|-----------------------------------------------------------------|
C#|-7-7-7-7-7-7-7-7-3-3-3-3-3-3-3-3-2-2-2-2-2-2-2-2-2-2-2-2-2-2-2-2-|

F#|--------------------------------------------------------------|
C#|--------------------------------------------------------------|
G#|---3--3-3-3-3-------------------------------------------------|
C#|--------------7-7-7-7-7-7-7-7-3-3-3-3-3-3-3-3-3-3-3-3-3-3-3-3-|

F#|--------------------------------------------|
C#|--------------------------------------------|
G#|--------------------------------------------|
C#|-5~--------4~-------3--3--3--3--3--3--3--3--|

Outro
F#|---------------------|
C#|---------------------|
G#|---------------------|
C#|-2---3-3----3-3-5x---|




TRACK 6 - IT'S NEVER SUNNY IN SOUTH PHILADELPHIA


Intro
F#|----------------------------------------------------------------------------------------------------|
C#|----------------------------------------------------------------------------------------------------|
G#|-3--3--3--3--3--3--3--3--3--3--3--3--3--3--3--3--3--------------------------------------------------|
C#|----------------------------------------------------5--5--5--5--5--5--5--5--5--5--5--5--5--5--5--5--|

F#|---------------------------------------------------------------------------------------------------|
C#|---------------------------------------------------------------------------------------------------|
G#|---------------------------------------------------------------------------------------------------|
C#|-3--3--3--3--3--3--3--3--3--3--3--3--3--3--3--3--3--5--5--5----5--5----5--5----5--5----5--5--5--5--|

Verse I (the fills here were extremely hard to hear, i could barely make them out, so i tried my best)
F#|----------------------5~---------------------5---4------4-------|
C#|-------------------5----------------------5----------5------5---|
G#|-3~-----------------------------2~------------------------------|
C#|----------------------------------------------------------------|

F#|----------------------3~--------------------------------------------------------|
C#|-------------------3------------------------------------------------------------|
G#|-1~-----------------------------------------------------------------------------|
C#|--------------------------------3--3--3--3--3--3--3--3--5--5--5--5--5--5--5--5--|

F#|----------------------------------------------------------------------------------------------|
C#|----------------------------------------------------------------------------------------------|
G#|-3--3--3--3--3--3--3--3--2--2--2--2--2--2--2--2--1--1--1--1--1--1--1--------------------------|
C#|----------------------------------------------------------------------3--3--3--3--5--5--5--5--|

F#|------------------------------------------------------------------------------------------------|
C#|------------------------------------------------------------------------------------------------|
G#|-3--3--3--3--3--3--3--3--2--2--2--2--2--2--2--2--1--1--1--1--1--1--1----------------------------|
C#|----------------------------------------------------------------------3-3-3-3-3-3-3----5--5--5--|

Pre-Chorus
F#|------------------------------------------------------------------------------------------|
C#|------------------------------------------------------------------------------------------|
G#|-3--3--3x--------3x--------3x--------3x-----------2~--------2~--------2~--------2~--------|
C#|------------------------------------------------------------------------------------------|

F#|----------------------------------------------------------------------------------------|
C#|----------------------------------------------------------------------------------------|
G#|-1x--------1x-------1x--------1x--------------------------------------------------------|
C#|----------------------------------------3--3--3--3--3--3--3--3--5--5--5--5--5--5--5--5--|

Chorus
F#|-------------------------------------------------------------------------------------------------|
C#|-------------------------------------------------------------------------------------------------|
G#|-3x----------------------------------------------------------------------------------------------|
C#|-------------------------3--3--3--3--3--3--3--3--5--5--5--5--5--5--5--5--3--3--3--3--3--3--3--3--|

F#|-----------------------------------------------------------------------------------------------|
C#|-----------------------------------------------------------------------------------------------|
G#|-3--3--3--3--3--3--3--3------------------------------------------------------------------------|
C#|-------------------------3--3--3--3--3--3--3--3--5--5--5--5--5--5--5--5--3--3----3--5--5----5--|

F#|----------------------------------------------------------------------------------------|
C#|----------------------------------------------------------------------------------------|
G#|----------------------3--3----3---------------------------------------------------------|
C#|-7--7----7--5--5----5------------3--3----3--5--5----5--5----5--5----5--5----5--5--5--5--|

Verse II
F#|----------------------5~---------------------5---4------4-------|
C#|-------------------5----------------------5----------5------5---|
G#|-3~-----------------------------2~------------------------------|
C#|----------------------------------------------------------------|

F#|----------------------3~--------------------------------------------------------|
C#|-------------------3------------------------------------------------------------|
G#|-1~-----------------------------------------------------------------------------|
C#|--------------------------------3--3--3--3--3--3--3--3--5--5--5--5--5--5--5--5--|

F#|----------------------------------------------------------------------------------------------|
C#|----------------------------------------------------------------------------------------------|
G#|-3--3--3--3--3--3--3--3--2--2--2--2--2--2--2--2--1--1--1--1--1--1--1--------------------------| (pause)
C#|----------------------------------------------------------------------3--3--3--3--5--5--5--5--|

"I'm a burden, but at least I know it"
F#|-------------------------------------------------|
C#|-------------------------------------------------|
G#|-------------------------------------------------|
C#|-3--3--3--3--3--3--3--3--5--5--5--5--5--5--5--5--|

Chorus II
F#|-------------------------------------------------------------------------------------------------|
C#|-------------------------------------------------------------------------------------------------|
G#|-3--3--3--3--3--3--3--3--------------------------------------------------------------------------|
C#|-------------------------3--3--3--3--3--3--3--3--5--5--5--5--5--5--5--5--3--3--3--3--3--3--3--3--|

F#|-----------------------------------------------------------------------------------------------|
C#|-----------------------------------------------------------------------------------------------|
G#|-3--3--3--3--3--3--3--3------------------------------------------------------------------------|
C#|-------------------------3--3--3--3--3--3--3--3--5--5--5--5--5--5--5--5--3--3----3--5--5----5--|

F#|--------------------------------------------------------------------------------------------|
C#|--------------------------------------------------------------------------------------------|
G#|----------------------3--3----3-------------------------------------------------------------|
C#|-7--7----7--5--5----5------------3--3----3--5--5--5--5--5--5--5--5--5--5--5--5--5--5--5--5--|

Bridge
F#|-----------------------------------------------|
C#|-----------------------------------------------|
G#|-3~--------------------------------------------|
C#|-----------------------------------------------|

F#|--------------------------------------------------------------------------|
C#|--------------------------------------------------------------------------|
G#|-3x--------3--3x------------3--3x-----------------------------------------|
C#|-------------------------------------5x--------5--5x-------------5--5x----|

F#|---------------------------------------------------------------------------|
C#|---------------------------------------------------------------------------|
G#|---------------------------------------------------------------------------|
C#|-3x--------3--3x------------3--3x----5x--------5--5x-------------5--5x-----|

F#|-------------------------------------------------------------------------------------------------|
C#|-------------------------------------------------------------------------------------------------|
G#|-3--3--3--3--3--3--3--3--3--3--3--3--3--3--3--3--------------------------------------------------|
C#|-------------------------------------------------5--5--5--5--5--5--5--5--5--5--5--5--5--5--5--5--|
                                                                                                         x 2
F#|-------------------------------------------------------------------------------------------------|
C#|-------------------------------------------------------------------------------------------------|
G#|-------------------------------------------------------------------------------------------------|
C#|-3--3--3--3--3--3--3--3--3--3--3--3--3--3--3--3--5--5--5--5--5--5--5--5--5--5--5--5--5--5--5--5--|

F#|-------------------------------------------------------------------------------------------------|
C#|-------------------------------------------------------------------------------------------------|
G#|-3--3--3--3--3--3--3--3--2--2--2--2--2--2--2--2--1--1--1--1--1--1--1--1--------------------------| x 2
C#|-------------------------------------------------------------------------3--3--3--3--3--3--3--3--|

F#|-------------------------------------------------------------------------------------------------|
C#|-------------------------------------------------------------------------------------------------|
G#|-3--3--3--3--3--3--3--3--------------------------------------------------------------------------| x 2
C#|-------------------------3--3--3--3--3--3--3--3--5--5--5--5--5--5--5--5--3--3--3--3--3--3--3--3--|

End with:
F#|-----------------------------------------------|
C#|-----------------------------------------------|
G#|-3~--------------------------------------------|
C#|-----------------------------------------------|




TRACK 7 - HOSTELS AND BROTHELS


Intro
F#|------------------------------------------------------|
C#|------------------------------------------------------|
G#|------------4----2------------------------------------|
C#|-6----4--6------------2-2-2-2-2-2-2-2-2-2-2-2-2-2-2-2-|

F#|-----------------------------------------------------------------|
C#|-----------------------------------------------------------------|
G#|-----------------------------------------------------------------|
C#|-6-6-6-6-6-6-6-6-4-4-4-4-4-4-4-4-2-2-2-2-2-2-2-2-2-2-2-2-2-2-2-2-|

F#|-----------------------------------------------------------------|
C#|-----------------------------------------------------------------|
G#|-----------------------------------------------------------------|
C#|-4-4-4-4-4-4-4-4-6-6-6-6-4-4-4-4-2-2-2-2-2-2-2-2-2-2-2-2-2-2-2-2-|

F#|-----------------------------------------------------------------|
C#|-----------------------------------------------------------------|
G#|-----------------------------------------------------------------|
C#|-6-6-6-6-6-6-6-6-4-4-4-4-4-4-4-4-2-2-2-2-2-2-2-2-2-2-2-2-2-2-2-2-|

F#|----------------------|
C#|----------------------|
G#|------------4----2----|
C#|-6----4--6------------|

Verse x 2
F#|--------------------------------------------------------------------------------------------------|
C#|--------------------------------------------------------------------------------------------------|
G#|----------------------------------------4-4-2-----------------------------------------2--2--4x----|
C#|-2--2--2--2--2--2--2--2--2--2--2--2--x---------2--2--2--2--2--2--2--2--2x----4--4x----------------|

F#|--------------------------------------------------------------------------------------------|
C#|--------------------------------------------------------------------------------------------|
G#|----------------------------------------4-4-2-------------------------------------4----2----|
C#|-2--2--2--2--2--2--2--2--2--2--2--2--x---------2--2--2--2--2--2--2--2--6----4--6------------|

Pre-Chorus
F#|------------------------------------------------------------|
C#|------------------------------------------------------------|
G#|-0-0-0-0-0-0-0-0-2-2-2-2-2-2-2-2-4-4-4-4-4-4-4-4-4----------|
C#|------------------------------------------------------4--6--|

F#|-------------------------------------------------------------------|
C#|-------------------------------------------------------------------|
G#|-0-0-0-0-0-0-0-0-2-2-2-2-2-2-2-2-4-4-4-4-4-4-4-4-4-7-7-7-7-6-6-4-4-|
C#|-------------------------------------------------------------------|

F#|----------------------------------------------------------------------|
C#|----------------------------------------------------------------------|
G#|-0-0----0-0-0----0-2-2----2-2-2----2-4-4----4-4-4----4-4--------------|
C#|------------------------------------------------------------4----6----|

F#|----------------------------------------------------------------------|
C#|----------------------------------------------------------------------|
G#|-0-0----0-0-0----0-2-2----2-2-2----2-4-4----4-4-4----4-7--------------|
C#|----------------------------------------------------------------------|

Chorus
F#|-------------------------------------------------------------------------------|
C#|-------------------------------------------------------------------------------|
G#|---------------------------------------------------------4----4--4----2--2--2--|
C#|-2~--------------------------------2----2----2----2----------------------------|

F#|-------------------------------------------------------|
C#|-------------------------------------------------------|
G#|-0--0--0--0--0--0--0--0--0--0--2--2--2--2--2--2--2--2--|
C#|-------------------------------------------------------|

F#|------------------------------------------------------------------------------------------|
C#|------------------------------------------------------------------------------------------|
G#|-----------------------4----4--4----2--2--2--0--0--0--0--0--0--0--0-------------4----2----|
C#|-2----2----2----2----------------------------------------------------6----4--6------------|

Verse x 1

Pre-Chorus II
F#|------------------------------------------------------------|
C#|------------------------------------------------------------|
G#|-0-0-0-0-0-0-0-0-2-2-2-2-2-2-2-2-4-4-4-4-4-4-4-4-4----------|
C#|------------------------------------------------------4--6--|

F#|-------------------------------------------------------------------|
C#|-------------------------------------------------------------------|
G#|-0-0-0-0-0-0-0-0-2-2-2-2-2-2-2-2-4-4-4-4-4-4-4-4-4-7-7-7-7-6-6-4-4-|
C#|-------------------------------------------------------------------|

F#|------------------------------------------------------------|
C#|------------------------------------------------------------|
G#|-0-0-0-0-0-0-0-0-2-2-2-2-2-2-2-2-4-4-4-4-4-4-4-4-4----------|
C#|------------------------------------------------------4--6--|

F#|-------------------------------------------------------------------|
C#|-------------------------------------------------------------------|
G#|-0-0-0-0-0-0-0-0-2-2-2-2-2-2-2-2-4-4-4-4-4-4-4-4-4-7---------------|
C#|-------------------------------------------------------------------|

Chorus II
F#|------------------------------------------|
C#|------------------------------------------|
G#|----------------------4--4--4----2--2--2--|
C#|-2----2----2----2-------------------------|

F#|-------------------------------------------------------|
C#|-------------------------------------------------------|
G#|-0--0--0--0--0--0--0--0--0--0--2--2--2--2--2--2--2--2--|
C#|-------------------------------------------------------|

F#|---------------------------------------------------------------------------------|
C#|---------------------------------------------------------------------------------|
G#|-----------------------4----4--4----2--2--2--2--2--2--2--2-------------4----2----|
C#|-2----2----2----2-------------------------------------------6----4--6------------|

Post-Chorus
F#|-----------------------------------------------------------------------|
C#|-----------------------------------------------------------------------|
G#|------------------------------------4--------0-------2--------2--------|
C#|-2--------2--------2-------2-------------------------------------------|

Bridge (come in towards the very end)
F#|---------------------------------------------------------------------------|
C#|---------------------------------------------------------------------------|
G#|-4~------------------------------------------------------------------------|
C#|---------------------------------------------------------------------------|

Final Chorus
F#|------------------------------|
C#|------------------------------|
G#|------------------------------|
C#|-2~---------------------------|

F#|-------------------------------------------------------|
C#|-------------------------------------------------------|
G#|-0--0--0--0--0--0--0--0--0--0--2--2--2--2--2--2--2--2--|
C#|-------------------------------------------------------|

F#|--------------------------------------------------------------------------------------------------|
C#|--------------------------------------------------------------------------------------------------|
G#|-----------------------4----4--4------2--2--2----0--0--0--0--0--0--0--0--2--2--2x--------2--2x----| x 2
C#|-2----2----2----2---------------------------------------------------------------------------------|

F#|-------------------------------------------------------------------------------------------------------|
C#|-------------------------------------------------------------------------------------------------------|
G#|-----------------------4----4--4------2--2--2----0--0--0--0--0--0--0--0-------------4----2-------------|
C#|-2----2----2----2--------------------------------------------------------6----4--6-----------2~--------|




TRACK 8 - MELROSE DINER


Intro
F#|------------------------------------------------------------------------------------------------|
C#|------------------------------------------------------------------------------------------------|
G#|-3----3--5----5--5--5--------------------------3----3--5----5--5--5-----------------------------|
C#|-----------------------3--3--3--3--3--3--3--3------------------------3-3-3-3-3-3-3-3-3-3-3-3-3x-|

Verse I
F#|--------------------------------------------------------------------------------------|
C#|--------------------------------------------------------------------------------------|
G#|-3----3--5----5--5--5--------------------------3----3--5----5--5--5-------------------|
C#|-----------------------3--3--3--3--3--3--3--3------------------------3--3--3--3--3x---|

F#|-----------------------------------------------------------------------------------------|
C#|---------------------------------------------------------------------5-5--3-3--2-2-------|
G#|-3----3--5----5--5--5--------------------------3----3--5----5--5--5-----------------5-5--|
C#|-----------------------3--3--3--3--3--3--3--3--------------------------------------------|

Pre-Chorus
F#|----------------------------------------------------------------------------------|
C#|----------------------------------------------------------------------------------|
G#|-3----3--3--3--3----3--3--3--3-------------------------------------------6--6--6--|
C#|----------------------------------2----3----3--3--3--3----x--x--x--x--x-----------|

F#|-------------------------------------------------------------------------------------------|
C#|-------------------------------------------------------------------------------------------|
G#|-3----3--3--3--3----3--3--3--3-------------------------------------------------------------|
C#|----------------------------------2----3--3--3--3--3--3--3--3/15-15-15-15-15-15-15-15-15x--|

Verse I 

Chorus
F#|---------------------------------------------------------------------------------|
C#|---------------------------------------------------------------------------------|
G#|-3----3--3--3--3--3--------------------------------------------------------------|
C#|---------------------5----5--5--5--5--5--0----0--0--0--0--0--3----3--3--3--3--3--|

F#|---------------------------------------------------------------------------------|
C#|---------------------------------------------------------------------------------|
G#|-3----3--3--3--3--3--------------------------------------------------------------|
C#|---------------------5----5--5--5--5--5--7--7--7--7--7--7--7--7--3~--------------|

Verse II
F#|-------------------------------------------------------------------------------------|
C#|-------------------------------------------------------------------------------------|
G#|-3~-----------------------------5----------------------------------------------------|
C#|------------------5~---------------5--7--3----3~--------3~--------3~-------3~--------|

F#|-------------------------------------------------|
C#|-------------------------------------------------|
G#|-------------------------------------------------|
C#|-5--5--5--5--5--5--5--5--5--5--5--5--5--5--5--5--|

F#|-----------------------------------------------|
C#|-----------------------------------------------|
G#|-3----3--5----5--5--5--------------------------| x 3
C#|-----------------------3--3--3--3--3--3--3--3--|

F#|-----------------------------------------------|
C#|-----------------------------------------------|
G#|-3x--------------------------------------------|
C#|-----------------------------------------------|

Chorus II
F#|---------------------------------------------------------------------------------|
C#|---------------------------------------------------------------------------------|
G#|-3----3--3--3--3--3--------------------------------------------------------------|
C#|---------------------5----5--5--5--5--5--0----0--0--0--0--0--3----3--3--3--3--3--|

F#|---------------------------------------------------------------------------------|
C#|---------------------------------------------------------------------------------|
G#|-3----3--3--3--3--3--------------------------------------------------------------|
C#|---------------------5----5--5--5--5--5--7--7--7--7--7--7--7--7--3~--------------|

F#|---------------------------------------------------------------------------------|
C#|---------------------------------------------------------------------------------|
G#|-3----3----3----3----------------------------------------------------------------|
C#|---------------------5----5----5----5----7----7----7----7----3----3----3----3----|

F#|----------------------------------------------------------------|
C#|----------------------------------------------------------------|
G#|-3~-------------------------------------------------------------|
C#|------------------------------3~--------------------------------|

Bridge
F#|-------------------------------------------------------------------------------------------------|
C#|-------------------------------------------------------------------------------------------------|
G#|-3--3--3--3--3--3--3--3--3--3--3--3--3--3--3--3--------------------------------------------------| x 2
C#|-------------------------------------------------3--3--3--3--3--3--3--3--3--3--3--3--3--3--3--3--|

F#|-------------------------------------------------------------------------------------------------|
C#|-------------------------------------------------------------------------------------------------|
G#|-3--3--3--3--3--3--3--3--3--3--3--3--3--3--3--3--------------------------------------------------| x 2
C#|-------------------------------------------------3--3--3------------------3--3--3----------------|

F#|--------------------------------------------------------------------------------------------------------|
C#|--------------------------------------------------------------------------------------------------------|
G#|-3-------------------3--3--------------------------3-----------------3--3-------------------------------|
C#|---------------------------3-----------------3--3--------------------------3------------3-3-3-3-3-3-3-3-|

Final Chorus
F#|---------------------------------------------------------------------------------|
C#|---------------------------------------------------------------------------------|
G#|-3-------------------------------------------------------------------------------|
C#|---------------------5----5--5--5--5--5--0----0--0--0--0--0--3----3--3--3--3--3--|

F#|---------------------------------------------------------------------------------|
C#|---------------------------------------------------------------------------------|
G#|-3----3--3--3--3--3--------------------------------------------------------------|
C#|---------------------5----5--5--5--5--5--7--7--7--7--7--7--7--7--3~--------------|

F#|---------------------------------------------------------------------------------|
C#|---------------------------------------------------------------------------------|
G#|-3----3----3----3----------------------------------------------------------------|
C#|---------------------5----5----5----5----7----7----7----7----3----3----3----3----|

F#|---------------------------------------------------------------------------|
C#|---------------------------------------------------------------------------|
G#|-3----3----3----3----------------------------------------------------------|
C#|------------------5----5--5--5--5--5--7--7--7--7--7--7--7--7--3~-----------|




TRACK 9 - THIS PARTY SUCKS


Intro
F#|-----------|
C#|-----------|
G#|-----------|
C#|-12\-------|

Main Riff/Chorus
F#|-----------------------------------------------------------------|
C#|-----------------------------------------------------------------|
G#|-----------------------------------------------------------------| x 2
C#|-0-0-0-0-0-0-0-0-0-0-0-0-0-0-0-0-5-5-5-5-5-5-5-5-5-5-5-5-5-5-5-5-|

F#|----------------------------------------------------------------------------------------------------|
C#|----------------------------------------------------------------------------------------------------|
G#|------------------------------------------------------------2-2--5-5--0-0---------------------------|
C#|-0--0--0--0--0--0--0-0----5-5-5-5-5-5-5-5-5-5-5-5-5-5-5-5-5------------------2-2-2-0~---------------|

Pre-Verse
F#|---------------------------|
C#|---------------------------|
G#|---------------------------|
C#|-2----0~------------2-2----|

Verse x 2
F#|-----------------------------------------------------------------|
C#|-----------------------------------------------------------------|
G#|-----------------------------------------------------------------|
C#|-0-0-0-0-0-0-0-0-0-0-0-0-0-0-0-0-0-0-0-0-0-0-0-0-0-0-0-0-0-0-0-0-|

F#|-----------------------------------------------------------------|
C#|-----------------------------------------------------------------|
G#|-----------------------------------------------------------------|
C#|-9-9-9-9-9-9-9-9-7-7-7-7-7-7-7-7-5-5-5-5-5-5-5-5-5-5-5-5-5-5-2-2-|

Pre-Chorus
F#|---------------------------------------------------------------------------------------------|
C#|---------------------------------------------------------------------------------------------|
G#|---------------------------------------------------------------------------------------------|
C#|-7~------------8~------------9-9-9-9-9-9-9-9-7-7-7-7-7-7-7-7-5-5-5-5-5-5-5-5-5-5-5-5-5-5-5-5-|

F#|---------------------------------------------------------------------------------------------|
C#|---------------------------------------------------------------------------------------------|
G#|---------------------------------------------------------------------------------------------|
C#|-7~------------8~------------9-9-9-9-9-9-9-9-7-7-7-7-7-7-7-7-5-5-5-5-5-5-5-5-5-5-5-5-12\-----|

Chorus/Main riff

Pre-Verse

Verse II
F#|------------------------------------------------------------------------|
C#|------------------------------------------------------------------------|
G#|------------------------------------------------------------------------|
C#|---------------0--0----------------9~--------7~--------5~---------------|

F#|-----------------------------------------------------------------|
C#|-----------------------------------------------------------------|
G#|-----------------------------------------------------------------|
C#|-0-0-0-0-0-0-0-0-0-0-0-0-0-0-0-0-0-0-0-0-0-0-0-0-0-0-0-0-0-0-0-0-|

F#|-----------------------------------------------------------------|
C#|-----------------------------------------------------------------|
G#|-----------------------------------------------------------------|
C#|-9-9-9-9-9-9-9-9-7-7-7-7-7-7-7-7-5-5-5-5-5-5-5-5-5-5-5-5-5-5-5-5-|

Pre-Chorus II
F#|-----------------------------------------------|
C#|-----------------------------------------------|
G#|-----------------------------------------------|
C#|-7--7--7--7----7--7--7--8--8--8--8----8--8--8--|

F#|-----------------------------------------------------------------|
C#|-----------------------------------------------------------------|
G#|-----------------------------------------------------------------|
C#|-9-9-9-9-9-9-9-9-7-7-7-7-7-7-7-7-5-5-5-5-5-5-5-5-5-5-5-5-5-5-5-5-|

F#|-------------------------------------------------|
C#|-------------------------------------------------|
G#|-------------------------------------------------|
C#|-7--7--7--7--7--7--7--7--8--8--8--8--8--8--8--8--|

F#|-----------------------------------------------------------------|
C#|-----------------------------------------------------------------|
G#|-----------------------------------------------------------------|
C#|-9-9-9-9-9-9-9-9-7-7-7-7-7-7-7-7-5-5-5-5-5-5-5-5-5-5-5-5-12\-----|

Chorus/Main Riff

Bridge
F#|------------------------------------------|
C#|------------------------------------------|
G#|------------------------------------------|
C#|-0~---------------------------------------|

F#|-------------------------------------------------|
C#|-------------------------------------------------|
G#|-------------------------------------------------| x 3
C#|-0--0--0--0--0--0--0--0--5--5--5--5--5--5--5--5--|

F#|--------------------------------------|
C#|--------------------------------------|
G#|-2--2--2--2--2--2--2--2--0x-----------|
C#|--------------------------------------|

F#|----------------------------------------------------------------------------------------|
C#|----------------------------------------------------------------------------------------|
G#|-----------------------------------------------2x---------------0~----------------------|
C#|-0--0--0--0----0--0--0--5--5--5--5----5--5--5------------------------------------12\----|

chorus/main riff

Outro
F#|-------------------------------------|
C#|-------------------------------------|
G#|-------------------------------------|
C#|-0~-------0~-------0~--------0-0x----|




TRACK 10 - HEY THANKS


Interlude (Come in at 1:34) x 2
F#|-------------------------------------------------------------------------------------------------------7--|
C#|----------------------------------------------------------3--3--3--3--3--3--3--4--5--5--5--5--5--7--9-----|
G#|----------------------------7-5---7--7--7--7--7--7--7--7--------------------------------------------------| 
C#|-10--10--10--10--10--10--10-----9-------------------------------------------------------------------------|

Chorus
F#|-------------------------------------------------|
C#|-------------------------------------------------|
G#|-------------------------3--3--3--3--3--3--3--3--| x 2
C#|-3--3--3--3--3--3--3--3--------------------------|

F#|----------------------------------------------------|
C#|----------------------------------------------------|
G#|----------------------------------------------------|
C#|-5--5--5--5--5--5--5--5--3--3--3--3/14--14--14--14--|

Outro
Gb|----------------------------------------------------------------------|
Db|----------------------------------------------------------------------|
Ab|----------------------------7-5------------------------------7-5------|
Eb|-10--10--10--10--10--10--10-----9-10--10--10--10--10--10--10-----9-10-|




TRACK 11 - WASHINGTON SQUARE PARK


the wonder years - washington square park

Tabbed by: ashy (XxThreeCheersxX)
E-mail: burdickash@gmail.com

Tuning: Drop C#

Intro
F#|-------------------------------------------------------------------------------------------------|
C#|-------------------------------------------------------------------------------------------------|
G#|-------------------------------------------------------------------------------------------------|
C#|-0x-------0-0x------0--0x-------0-0x--------0--0-0x--------0x---------0--0----7----4-4----2-2----|

F#|--------------------------------|
C#|--------------------------------|
G#|--------------------------------|
C#|-0-0-0-0-0-0-0-0-0-0-0-0--5-5-5-|

F#|------------------------|
C#|------------------------|
G#|------------------------|
C#|-7----4-4----2-2--------|

Verse I
F#|--------------------------------------------------------------------------------------|
C#|--------------------------------------------------------------------------------------|
G#|--------------------------------------------------------------------------------------|
C#|-0-0-0-0-0-0-0-0-0-0-0-0--5-5-5-0-0-0-0-0-0-0-0-0-0-0-0--5-5-5-7----4-4----2-2--------|

F#|--------------------------------|
C#|--------------------------------|
G#|--------------------------------| x 3
C#|-0-0-0-0-0-0x-------------5-5-5-|

F#|------------------------|
C#|------------------------|
G#|------------------------|
C#|-7----4-4----2-2--------|

Pre-Chorus
F#|-----------------------------------------------------------------|
C#|-----------------------------------------------------------------|
G#|-----------------------------------------------------------------| x 2
C#|-5-5-5-5-5-5-5-5-5-5-5-5-5-5-5-5-7-7-7-7-7-7-7-7-7-7-7-7-7-7-7-7-|

Chorus x 2
F#|-----------------------------------------------------------------|
C#|-----------------------------------------------------------------|
G#|-----------------------------------------------------------------|
C#|-0-0-0-0-0-0-0-0-0-0-0-0-0-0-0-0-5-5-5-5-5-5-5-5-7-7-7-7-7-7-7-7-|

F#|-----------------------------------------------------------------------------|
C#|-----------------------------------------------------------------------------|
G#|-----------------------------------------------------------------------------|
C#|-9-9-9-9-9-9-9-9-9-9-9-9-11-11-12-12-5-5-5-5-5-5-5-5-5-5-5-5-5-------7---7---|

Post-Chorus
F#|--------------------------------|
C#|--------------------------------|
G#|--------------------------------|
C#|--------------------------5-5-5-|

F#|--------------------------------|
C#|--------------------------------|
G#|--------------------------------| x 2
C#|-0-0-0-0-0-0-0-0-0-0-0-0--5-5-5-|

F#|------------------------|
C#|------------------------|
G#|------------------------|
C#|-7----4-4----2-2--------|

Verse II (bass solo!)
F#|----------------------------------------|
C#|----------------------------------------|
G#|---7-9---4-5-------12------7-9----9-7-5-| x 4
C#|-0-----0---------0-------0--------------|

F#|-----------------------------------|
C#|-----------------------------------|
G#|-----------------------------------| x 3
C#|-0-0-0-0-0-0-0-0-0-0-0-0-0-0-5-5-5-|

F#|------------------------|
C#|------------------------|
G#|------------------------|
C#|-7----5-5---------------|

Chorus

Bridge
F#|---------------------------------------------------------------------|
C#|---------------------------------------------------------------------|
G#|---------------------------------------------------------------------|
C#|-0-0-0-0-0-0-0-0-0-0-0-0-12-12-11-11-5-5-5-5-5-5-5-5-7-7-7-7-7-7-7-7-|
                                                                                  x 2
F#|-----------------------------------------------------------------------|
C#|-----------------------------------------------------------------------|
G#|-----------------------------------------------------------------------|
C#|-9-9-9-9-9-9-9-9-9-9-9-9-11-11-12-12-5-5-5-5-5-5-5-5-5-5-5-5-5-5-5-5-5-|

F#|--------------------------------------------------------------------|
C#|--------------------------------------------------------------------|
G#|--------------------------------------------------------------------|
C#|-0-0-0-0-0-0-0-0-0-0-0-12-12-11-11--5-5-5-5-5-5-5-5-7-7-7-7-7-7-7-7-|
                                                                                  
F#|-----------------------------------------------------------------------|
C#|-----------------------------------------------------------------------|
G#|-----------------------------------------------------------------------|
C#|-9-9-9-9-9-9-9-9-9-9-9-9-11-11-12-12-5-5-5-5-5-5-5-5-5x----------------|

F#|---------------------------------------------------------------------|
C#|---------------------------------------------------------------------|
G#|---------------------------------------------------------------------|
C#|-0-0-0-0-0-0-0-0-0-0-0-0-12-12-11-11-5-5-5-5-5-5-5-5-7-7-7-7-7-7-7-7-|
                                                                                  x 3
F#|-----------------------------------------------------------------------|
C#|-----------------------------------------------------------------------|
G#|-----------------------------------------------------------------------|
C#|-9-9-9-9-9-9-9-9-9-9-9-9-11-11-12-12-5-5-5-5-5-5-5-5-5-5-5-5-5-5-5-5-5-|




TRACK 12 - ALL MY FRIENDS ARE IN BAR BANDS


Verse I (no bass)

Pre-Chorus
F#|---------------------------------------------------------------------------------|
C#|---------------------------------------------------------------------------------|
G#|---------------------------------------------------------------------------------| x 2
C#|-5----5----5----5----7----7----7----7----0----0----0----0----0----0----0----0----|

Chorus
F#|------------------------------------|
C#|------------------------------------|
G#|------------------------------------| x 2
C#|-0~-------2~-------5~---------------|

F#|-------------------------------------------------|
C#|-------------------------------------------------|
G#|-------------------------------------------------| x 2
C#|-0--0--0--0--2--2--2--2--5--5--5--5--5--5--5--5--|

F#|-------------------------------------------------|
C#|-------------------------------------------------|
G#|-------------------------------------------------|
C#|-9--9--9--9--7--7--7--7--5~----------------------|

Verse II x 3
F#|-----------------------------------------------------|
C#|-----------------------------------------------------|
G#|---------------------------------------------5-4-2-0-|
C#|-0--0-0--0-0----0-0-0-0-0-0-0--0-0--0-0----0---------|

F#|-----------------------------------------------------|
C#|-----------------------------------------------------|
G#|-----------------------------------------------------|
C#|-5--5-5--5-5----5-5-5-5-5-5-7--7-7--7-7----7-7-7-7-7-|

Pre-Chorus II
F#|---------------------------------------------------------------------------------|
C#|---------------------------------------------------------------------------------|
G#|---------------------------------------------------------------------------------| 
C#|-5----5----5----5----7----7----7----7----0----0----0----0----0----0----0----0----|

F#|--------------------------------------------------------------------------------------------|
C#|--------------------------------------------------------------------------------------------|
G#|--------------------------------------------------------------------------------------------| 
C#|-5----5----5----5----7----7----7----7----0--0--0--0--0--0--0--0--0--0--0--0--0--0--0--0--0--|

Chorus

Bridge
F#|---------------------------------------------------------------------------------------------|
C#|---------------------------------------------------------------------------------------------|
G#|-5--5--5--5----5--5--5--5--5--5--5----5--5--5------------------------------------------------| x 4
C#|-----------------------------------------------5--5--5--5----5--5--5--7--7--7--7----7--7--7--|

F#|-------------------------------------------------------------------------------------------------|
C#|-------------------------------------------------------------------------------------------------|
G#|-5--5--5--5--5--5--5--5--5--5--5--5--5--5--5--5--------------------------------------------------| 
C#|-------------------------------------------------5--5--5--5--5--5--5--5--7--7--7--7--7--7--7--7--|

F#|-------------------------------------------------------------------------------------------------|
C#|-------------------------------------------------------------------------------------------------|
G#|-5--5--5--5--5--5--5--5--5--5--5--5--5--5--5--5--------------------------------------------------| 
C#|-------------------------------------------------5--5--5--5--5--5--5--5--7x----------------------|

F#|---------------------------------------------------------------------------|
C#|---------------------------------------------------------------------------|
G#|---------------------------------------------------------------------------|
C#|-0~------------------------------------------------------------------------|


HAPPY PLAYING!
Добавлено: 13.03.2016
Другие материалы по этой песне:
  • Аккорды и текст

Страница создана 13.03.2016
http://primanota.ru/the-wonder-years/upsides-album-chords.htm
Привет, Гость.
Предлагаем пройти революционный курс по гитаре.
Подарок от PrimaNota.Ru, забирай!