PrimaNota.ru - самый крупный в мире бесплатный архив песенных текстов, аккордов, табулатур и нот


The Wonder Years - Thanks For The Ride - бас-таба, видео

Регистрация Запомнить меня
Войти через:  Facebook Google Twitter Vk Yandex Mail.ru

The Wonder Years - Thanks For The Ride - бас-таба, видео

Печатать
Просмотров: 69
The Wonder Years - Thanks For the Ride

Tabbed by: Ashy (XxThreeCheersxX)
E-mail: burdickash@gmail.com

Tuning: Drop C#

Intro
F#|-----------------------------------------------------------------|
C#|-----------------------------------------------------------------|
G#|-0-0-0-0-0-0-0-0-3-3-3-3-3-3-3-3---------------------------------|
C#|---------------------------------5-5-5-5-5-5-5-5-5-5-5-5-5-5-5-5-|

F#|---------------------------------|
C#|---------------------------------|
G#|-0-0-0-0-0-0-0-0-3-3-3-3-3-3-3-3-|
C#|---------------------------------|

Verse I x 2
F#|-----------------------------------------------------------------|
C#|-----------------------------------------------------------------|
G#|---------------------------5-5-5-3-3-3-3-3-3-3-3-3-3-3-3-3-3-3-3-|
C#|-5-5-5-5-5-5-5-5-2-2-2-2-2---------------------------------------|

F#|-----------------------------------------------------------------|
C#|-5-5-5-5-5-5-5-5-------------------------------------------------|
G#|-----------------7-7-7-7-7-7-7-7-3-3-3-3-3-3-3-3-3-3-3-3-3-3-3-3-|
C#|-----------------------------------------------------------------|

Pre-Chorus
F#|-------------------------------------------------------------------------------------|
C#|---------------------------------------------------------------------------------17\-|
G#|-3-3-3-2-2-2-2-2-0--0--0--12\-3-3-3-2-2-2-2-2-0--0--0--0--3-3-3-2-2-2-2-2-0x---------|
C#|-------------------------------------------------------------------------------------|

F#|---------------------------------|
C#|-2-2-2-2-2-2-2-2-0-0-0-0-0-0-0-0-|
G#|---------------------------------|
C#|---------------------------------|

Chorus
F#|-----------------------------------------------------------------|
C#|-----------------------------------------------------------------|
G#|-------------------------------------------------3-3-3-3-2-2-2-2-|
C#|-5-5-5-5-5-5-5-5-0-0-0-0-0-0-0-0-2-2-2-2-2-2-2-2-----------------|

F#|---------------------------------------------------------------------------|
C#|---------------------------------------------------------------------------|
G#|-0-0-0-0-0-0-0-0-0-0-0-0-2-2-2-2-3-3-3-3-3-3-3-3-3x------------------------|
C#|---------------------------------------------------------------------------|

Intro

Verse II
F#|-----------------------------------------------------------------|
C#|-----------------------------------------------------------------|
G#|---------------------------5-5-5-3-3-3-3-3-3-3-3-3-3-3-3-3-3-3-3-|
C#|-5-5-5-5-5-5-5-5-2-2-2-2-2---------------------------------------|

F#|-----------------------------------------------------------------|
C#|-5-5-5-5-5-5-5-5-------------------------------------------5-5-5-|
G#|-----------------7-7-7-7-7-7-7-7-3-3-3-3-3-3-3-3-3-3-3-3-3-------|
C#|-----------------------------------------------------------------|

F#|-----------------------------------------------------------------|
C#|-----------------------------------------------------------5-5-5-|
G#|---------------------------5-5-5-3-3-3-3-3-3-3-3-3-3-3-3-3-------|
C#|-5-5-5-5-5-5-5-5-2-2-2-2-2---------------------------------------|

F#|---------------------------7-7-7-5-5-5-5-5-5-5-5-5-4-2-4-2-0-----|
C#|-5-5-5-5-5-5-5-5---------------------------------------------4-0-|
G#|-----------------7-7-7-7-7---------------------------------------|
C#|-----------------------------------------------------------------|

Pre-Chorus II
F#|---------------------------------|
C#|---------------------------------|
G#|-3-3-3-2-2-2-2-2-0-0-0-0-0-0-0-0-| x 3
C#|---------------------------------|

F#|-----------------------------|
C#|-2--2--2--2--0-0-0-0-0-0-0-0-|
G#|-----------------------------|
C#|-----------------------------|

Chorus II
F#|-----------------------------------------------------------------|
C#|-----------------------------------------------------------------|
G#|-------------------------------------------------3-3-3-3-2-2-2-2-|
C#|-5-5-5-5-5-5-5-5-0-0-0-0-0-0-0-0-2-2-2-2-2-2-2-2-----------------|

F#|-----------------------------------------------------------------|
C#|-----------------------------------------------------------------|
G#|-0-0-0-0-0-0-0-0-0-0-0-0-2-2-2-2-3-3-3-3-3-3-3-3-3-3-3-3-3-3-3-3-|
C#|-----------------------------------------------------------------|

F#|-----------------------------------------------------------------|
C#|-----------------------------------------------------------------|
G#|-------------------------------------------------3-3-3-3-2-2-2-2-|
C#|-5-5-5-5-5-5-5-5-0-0-0-0-0-0-0-0-2-2-2-2-2-2-2-2-----------------|

F#|---------------------------------------------------------------------------|
C#|---------------------------------------------------------------------------|
G#|-0-0-0-0-0-0-0-0-0-0-0-0-2-2-2-2-3-3-3-3-3-3-3-3-/6x-----------------------|
C#|---------------------------------------------------------------------------|

Bridge
F#|-----------------------------------------------------------------------------------------|
C#|-----------------------------------------------------------------------------------------|
G#|-7-7-7-7--7-7--6-6-6-6--6-6--5-5-5-5--5-5--4-4-4-4--4-4--3-3-3-3-3-3-3-3-3-3-3-3-6-6-6-6-|
C#|-----------------------------------------------------------------------------------------|

F#|-----------------------------------------------------------------------------------------|
C#|-----------------------------------------------------------------------------------------|
G#|-7-7-7-7--7-7--6-6-6-6--6-6----------------4-4-4-4--4-4--3-3-3-3-3-3-3-3-3-3-3-3-3-3-3-3-|
C#|-----------------------------0-0-0-0--0-0------------------------------------------------|

F#|---------------------------------|
C#|---------------------------------|
G#|-3-3-3-3-3-3-3-3-6-6-3-3-0-0-----|
C#|-----------------------------4-4-|

Final Chorus
F#|-----------------------------------------------------------------|
C#|-----------------------------------------------------------------|
G#|-------------------------------------------------3-3-3-3-2-2-2-2-|
C#|-5-5-5-5-5-5-5-5-0-0-0-0-0-0-0-0-2-2-2-2-2-2-2-2-----------------|

F#|---------------------------------------------------------------------|
C#|---------------------------------------------------------------------|
G#|-0-0-0-0-0-0-0-0-0-0-0-0-2-2-2-2-3-3-3-3-3-3-3-3-3-3-3-3/15-17-15-14-|
C#|---------------------------------------------------------------------|

F#|-----------------------------------------------------------------|
C#|-----------------------------------------------------------------|
G#|-------------------------------------------------3-3-3-3-2-2-2-2-|
C#|-5-5-5-5-5-5-5-5-0-0-0-0-0-0-0-0-2-2-2-2-2-2-2-2-----------------|

F#|---------------------------------------------------------------------------|
C#|---------------------------------------------------------------------------|
G#|-0-0-0-0-0-0-0-0-0-0-0-0-2-2-2-2-3-3-3-3-3-3-3-3-3x------------------------|
C#|---------------------------------------------------------------------------|

Happy playing!

| /  slide up
| \  slide down
| h  hammer-on
| p  pull-off
| ~  vibrato
| +  harmonic
| x  Mute note
===============================================================================
Добавлено: 13.03.2016
Другие материалы по этой песне:
  • Аккорды и текст

Страница создана 13.03.2016
http://primanota.ru/the-wonder-years/thanks-for-ride-chords.htm
Привет, Гость.
Предлагаем пройти революционный курс по гитаре.
Подарок от PrimaNota.Ru, забирай!