PrimaNota.ru - самый крупный в мире бесплатный архив песенных текстов, аккордов, табулатур и нот


The Wonder Years - Summers In Pa - бас-таба, видео

Регистрация Запомнить меня
Войти через:  Facebook Google Twitter Vk Yandex Mail.ru

The Wonder Years - Summers In Pa - бас-таба, видео

Печатать
Просмотров: 78
The Wonder Years - Summers in PA

Tabbed by: Ashy (XxThreeCheersxX)
E-mail: burdickash@gmail.com

Tuning: Drop C#

Intro
F#|------------------------------------------|
C#|------------------------------------------|
G#|-2--2-2-----------------------------------|
C#|--------4--4-4-5--5-5-5-5-5-5-5----5-5----|

F#|------------------------------------------------------------|
C#|------------------------------------------------------------|
G#|------------------------------------------------------------|
C#|-0-0-0-0-0-0-0-0-0-0-0-5-5-5-5-7-7-7-7-7-7-7-7-7-7-7-5-5-5--|

F#|----------------------------------------|
C#|----------------------------------------|
G#|---------------2--2-2-------------------|
C#|-0-0-0-0-0-0-0--------4--4-4-5--5-5-5-5-|

Verse I x 2
F#|-----------------------------------------------------------------|
C#|-----------------------------------------------------------------|
G#|-----------------------------------------------------------------|
C#|-0-0-0-0-0-0-0-0-0-0-0-0-0-0-0-0-7-7-7-7-7-7-7-7-7-7-7-7-7-7-7-7-|

F#|--------------------------------------------------------------|
C#|--------------------------------------------------------------|
G#|--------------------------------------------------------------|
C#|-9-9-9-9-9-9-9-9-9-7-7-7-7-7-7-7-7-9--9-9-4--4-4-5--5-5-5-5-5-|

Pre-Chorus
F#|------------------------------------------------|
C#|-------------------------------------------5----|
G#|------------------------------------------------|
C#|-7-7-7----7-7----9--9-9-5-5-5----5-5----5----5--|

F#|-------------------------------------------------------|
C#|-------------------------------------------------------|
G#|-------------------------------------------------------|
C#|-7-7-7----7-7----9--9-9-5--5-5-5-5-5-5-0-0-0-0-0-0-0-0-|

Chorus
F#|-----------------------------------------------------------------|
C#|-----------------------------------------------------------------|
G#|-----------------------------------------------------------------|
C#|-0-0-0-0-0-0-0-0-0-0-0-0-0-0-0-0-5-5-5-5-5-5-5-5-5-5-5-5-5-5-5-5-|

F#|-----------------------------------------------------------------|
C#|-----------------------------------------------------------------|
G#|-----------------------------------------------------------------|
C#|-9-9-9-9-9-9-9-9-4-4-4-4-4-4-4-4-5-5-5-5-5-5-5-5-5-5-5-5-5-5-5-5-|

Post-Chorus
F#|-----------------------------------------------------------|
C#|-----------------------------------------------------------|
G#|-----------------------------------------------------------|
C#|--5-5-5-5--0-0-0-0-0-0-0-0-5-5-5-5-5-5-7--7-7-7-7-7-7-7-7--|

F#|--------------------------------------------------------|
C#|--------------------------------------------------------|
G#|---------------------------2--2-2-----------------------|
C#|--5-5-5-5--0-0-0-0-0-0-0-0--------4--4-4-5--5-5-5-5-5-5-|

Verse II
F#|-----------------------------------------------------------------|
C#|-----------------------------------------------------------------|
G#|-----------------------------------------------------------------|
C#|-0-0-0-0-0-0-0-0-0-0-0-0-0-0-0-0-7-7-7-7-7-7-7-7-7-7-7-7-7-7-7-7-|

F#|--------------------------------------------------------------|
C#|--------------------------------------------------------------|
G#|--------------------------------------------------------------|
C#|-9-9-9-9-9-9-9-9-9-7-7-7-7-7-7-7-7-9--9-9-4--4-4-5--5-5-5-5-5-|

F#|------------------------------------------------------------------------------|
C#|------------------------------------------------------------------------------|
G#|------------------------------------------------------------------------------|
C#|-0--0---0-0-0-0--0----0-0-7--7----7-7-5-5--5----5-5-9--9----9-9-7-7--7----7-7-|

F#|----------------------------|
C#|----------------------------|
G#|----------------------------| (fun bass solo)
C#|-5--7-5-4--5-4-0~-----------|

Pre-Chorus II x 2
F#|-----------------------------------------------------------------|
C#|-----------------------------------------------------------------|
G#|-----------------------------------------------------------------|
C#|-7-7-7-7-7-7-7-7-7-7-7-7-9-9-9-9-5-5-5-5-5-5-5-5-5-5-5-5-5-5-5-5-|

Chorus II
F#|-----------------------------------------------------------------|
C#|-----------------------------------------------------------------|
G#|-----------------------------------------------------------------|
C#|-0-0-0-0-0-0-0-0-0-0-0-0-0-0-0-0-5-5-5-5-5-5-5-5-5-5-5-5-5-5-5-5-|

F#|-----------------------------------------------------------------|
C#|-----------------------------------------------------------------|
G#|-----------------------------------------------------------------|
C#|-9-9-9-9-9-9-9-9-4-4-4-4-4-4-4-4-5-5-5-5-5-5-5-5-5-5-5-5-5-5-5-5-|

F#|-----------------------------------------------------------------|
C#|-----------------------------------------------------------------|
G#|-----------------------------------------------------------------|
C#|-0-0-0-0-0-0-0-0-0-0-0-0-0-0-0-0-5-5-5-5-5-5-5-5-5-5-5-5-5-5-5-5-|

F#|---------------------------------------------------------------------|
C#|---------------------------------------------------------------------|
G#|---------------------------------------------------------------------|
C#|-9-9-9-9-9-9-9-9-4-4-4-4-4-4-4-4-5-5-5-5-5-5-5-5-5-5-5-5-5--5--7--7--|

Bridge
F#|-------------------------------------------------------------------------------------------------|
C#|-------------------------------------------------------------------------------------------------|
G#|-------------------------------------------------------------------------------------------------|
C#|-9--9--9--9--9--9--9--9--7--7--7--7--7--7--7--7--0--0--0--0--0--0--0--0--7--7--7--7--7--7--7--7--|

F#|-------------------------------------------------------------------------------------------------|
C#|-------------------------------------------------------------------------------------------------|
G#|-------------------------------------------------------------------------------------------------|
C#|-9--9--9--9--9--9--9--9--7--7--7--7--7--7--7--7--0--0--0--0--0--0--0--0--4--4--4--4--4--4--4--4--|

Final Chorus
F#|-----------------------------------------------------------------|
C#|-----------------------------------------------------------------|
G#|-----------------------------------------------------------------|
C#|-0-0-0-0-0-0-0-0-0-0-0-0-0-0-0-0-5-5-5-5-5-5-5-5-5-5-5-5-5-5-5-5-|
                                                                           x 2
F#|-----------------------------------------------------------------|
C#|-----------------------------------------------------------------|
G#|-----------------------------------------------------------------|
C#|-9-9-9-9-9-9-9-9-4-4-4-4-4-4-4-4-5-5-5-5-5-5-5-5-5-5-5-5-5-5-5-5-|

F#|---------------------------------------------------------------------------|
C#|---------------------------------------------------------------------------|
G#|---------------------------------------------------------------------------|
C#|-5-5-5-5-5-5-5-5-5-5-5-5-5-5-5-5-0--0-0--0---------------------------------|

Happy playing!

| /  slide up
| \  slide down
| h  hammer-on
| p  pull-off
| ~  vibrato
| +  harmonic
| x  Mute note
===============================================================================
Добавлено: 13.03.2016
Другие материалы по этой песне:
  • Аккорды и текст

Страница создана 13.03.2016
http://primanota.ru/the-wonder-years/summers-in-pa-chords.htm
Привет, Гость.
Предлагаем пройти революционный курс по гитаре.
Подарок от PrimaNota.Ru, забирай!