PrimaNota.ru - самый крупный в мире бесплатный архив песенных текстов, аккордов, табулатур и нот


The Wonder Years - Suburbia - бас-таба, видео

Регистрация Запомнить меня
Войти через:  Facebook Google Twitter Vk Yandex Mail.ru

The Wonder Years - Suburbia - бас-таба, видео

Печатать
Просмотров: 68
The Wonder Years - Surburbia

Tabbed by: ashy (XxThreeCheersxX)
E-mail: burdickash@gmail.com

Tuning: Drop C#

F#|---------------------------------------------------------------------------------------------|
C#|---------------------------------------------------------------------------------------------|
G#|-2~----------------------------------------2~------------------------------------------------| x 2
C#|-----------6~----4~----2~--------4~------------------6~----4~----2~--------4--4--4--4--4--4--|

F#|-------------------------------------------------------------------------|
C#|-------------------------------------------------------------------------|
G#|-2--2--2--2--2--2--------------------------------------------------------| x 2
C#|-------------------6--6--6--4--4--4--2--2--2--2--2--2--4--4--4--4--4--4--|

That's it - happy playing!

| /  slide up
| \  slide down
| h  hammer-on
| p  pull-off
| ~  vibrato
| +  harmonic
| x  Mute note
===============================================================================
Добавлено: 16.02.2016
Другие материалы по этой песне:

Страница создана 25.02.2014
http://primanota.ru/the-wonder-years/suburbia-chords.htm
Привет, Гость.
Предлагаем пройти революционный курс по гитаре.
Подарок от PrimaNota.Ru, забирай!