PrimaNota.ru - самый крупный в мире бесплатный архив песенных текстов, аккордов, табулатур и нот


The Wonder Years - Stained Glass Ceilings - бас-таба, видео

Регистрация Запомнить меня
Войти через:  Facebook Google Twitter Vk Yandex Mail.ru

The Wonder Years - Stained Glass Ceilings - бас-таба, видео

Печатать
Просмотров: 106
The Wonder Years - Stained Glass Ceilings

Tabbed by: Ashy (XxThreeCheersxX)
E-mail: burdickash@gmail.com

Tuning: Drop C#

Intro
F#|-----------------------------------------|
C#|-----------------------------------------|
G#|-----------------------------------------|
C#|-5----5----5----5----5----5----5----5----|

Verse x 2
F#|-------------------------------------------------------------------------|
C#|-------------------------------------------------------------------------|
G#|-5~----------------2~----------------------------------------------------|
C#|-------------------------------------4~----------------5~----------------|

Quiet Chorus
F#|-----------------------------------------------------------------------------------------------------------|
C#|-----------------------------------------------------------------------------------------------------------|
G#|-5~-------------------------------------5~-----------------------------------0~--------5----2--------------|
C#|-----------7~--------5~---------------------------7~-------5~------------------------------------5~--------|

Verse x 2

Chorus I
F#|-------------------------------------------------------------------------|
C#|-------------------------------------------------------------------------|
G#|-5---5-5-5-5-5-5---------------------------------------------------------| x 2
C#|-----------------7---7-7-7-7-7-7-5----5----5----5----5----5----5----5----|

F#|-------------------------------------------------------------------------|
C#|-------------------------------------------------------------------------|
G#|-0-0-0-0-0-0-0-0-5-5-5-5-2-2-2-2-----------------------------------------| x 2
C#|---------------------------------5----5----5----5----5----5----5----5----|

Bridge (come in after a short pause)
F#|-----------------------------------------------------------------|
C#|-----------------------------------------------------------------|
G#|-----------------------------------------------------------------| x 3
C#|-4-4-4-4-4-2-4-4-4-4-4-4-4-2-4-4-5-5-5-5-5-5-5-5-5-5-5-5-5-5-5-5-|

F#|---------------------------------|
C#|---------------------------------|
G#|---------------------------------|
C#|-7-7-7-7-7-7-7-7-7-7-7-7-7-7-7-7-|

"John Wayne with a fucking god complex"
F#|-----------------------------------------------------------------|
C#|-----------------------------------------------------------------|
G#|-----------------------------------------------------------------| x 3
C#|-9-9-9-9-9-9-9-9-9-9-9-9-9-9-9-9-5-5-5-5-5-5-5-5-5-5-5-5-5-5-5-5-|

F#|-----------------------------------------------------------------|
C#|-----------------------------------------------------------------|
G#|-5-5-5-5-5-5-5-5-5-5-5-5-5-5-5-5-5-5-5-5-5-5-5-5-5-5-5-5-5-------|
C#|-----------------------------------------------------------7-7-7-|

(Jason Butler enters)
F#|-----------------------------------------------------------------|
C#|-----------------------------------------------------------------|
G#|-----------------------------------------------------------------|
C#|-9-9-9-9-9-9-9-9-9-9-9-9-9-9-9-9-5-5-5-5-5-5-5-5-5-5-5-5-5-5-5-5-|
                                                                          x 2
F#|-----------------------------------------------------------------|
C#|-----------------------------------------------------------------|
G#|-5-5-5-5-5-5-5-5-5-5-5-5-5-5-5-5-5-5-5-5-5-5-5-5-5-5-5-5-5-------|
C#|-----------------------------------------------------------7-7-7-|

F#|---------------------------------------------------------------------------|
C#|---------------------------------------------------------------------------|
G#|---------------------------------------------------------------------------|
C#|-9----9----9----9--------9----9-9-9-9-5----5----5----5--------5----5-5-5-5-|

F#|---------------------------------------------------------------------------|
C#|---------------------------------------------------------------------------|
G#|---------------------------------------------------------------------------|
C#|-0----0----0----0--------0----0-0-0-0-0----0----0----0--------0----0-7-7-7-|

F#|-------------------------------------------------------------------------|
C#|-------------------------------------------------------------------------|
G#|-------------------------------------------------------------------------|
C#|-9----9----9-9-9--------9----9-9-9-9-5----5----5-5-5--------5----5-5-5-5-|

F#|-------------------------------------------------------------------------|
C#|-------------------------------------------------------------------------|
G#|-------------------------------------------------------------------------|
C#|-0----0----0-0-0--------0----0-0-0-0-0----0----0-0-0--------0----0-7-7-7-|

Final Chorus
F#|--------------------------------------------------------------------|
C#|--------------------------------------------------------------------|
G#|--------------------------------------------------------------------|
C#|-9----9----9-9-9-9----------------5----5----5-5-5-5---------------5-|

F#|--------------------------------------------------------------------|
C#|--------------------------------------------------------------------|
G#|--------------------------------------------------------------------|
C#|-0----0----0-0-0-0----------------0----0----0-0-0-0-----------------|

F#|--------------------------------------------------------------------|
C#|--------------------------------------------------------------------|
G#|--------------------------------------------------------------------|
C#|-9----9----9-9-9-9----------------5----5----5-5-5-5---------------5-|

F#|---------------------------------------------------------------------------------|
C#|---------------------------------------------------------------------------------|
G#|---------------------------------------------------------------------------------|
C#|-0----0----0-0-0-0----------------0----0----0----0----0-0-0-0-0-0-0-0-9~---------|

Happy playing!

| /  slide up
| \  slide down
| h  hammer-on
| p  pull-off
| ~  vibrato
| +  harmonic
| x  Mute note
===============================================================================
Добавлено: 13.03.2016
Другие материалы по этой песне:
  • Аккорды и текст

Страница создана 13.03.2016
http://primanota.ru/the-wonder-years/stained-glass-ceilings-chords.htm
Привет, Гость.
Предлагаем пройти революционный курс по гитаре.
Подарок от PrimaNota.Ru, забирай!