PrimaNota.ru - самый крупный в мире бесплатный архив песенных текстов, аккордов, табулатур и нот


The Wonder Years - Palm Reader - бас-таба, видео

Регистрация Запомнить меня
Войти через:  Facebook Google Twitter Vk Yandex Mail.ru

The Wonder Years - Palm Reader - бас-таба, видео

Печатать
Просмотров: 94
The Wonder Years - Palm Reader

Tabbed by: Ashy (XxThreeCheersxX)
E-mail: burdickash@gmail.com

Tuning: Drop C#

Intro
F#|-----------------------------------------------------------------------------|
C#|-----------------------------------------------------------------------------|
G#|-0~---------------------------------0~-----------------------------------12\-|
C#|-----------------------------------------------------------------------------|

Main Riff x 2
F#|-----------------------------------------------------------------|
C#|-----------------------------------------------------------------|
G#|-0-0-0-0-0-0-0-0-3-3-3-3-----------------------------------------| 
C#|-------------------------2-2-2-2-3-3-3-3-3-3-3-3-3-3-3-3-5-5-5-5-|

Verse I
F#|--------------------------------------------|
C#|--------------------------------------------|
G#|-0----0-2-3----3----------------------------| x 4
C#|-----------------2----2-3----3-3-3----5--5-/|

Pre-Chorus
F#|-----------------------------------------------------------------|
C#|-----------------------------------------------------------------|
G#|-----------------------------------------------------------------|
C#|-3-3-3-3-3-3-3-3-3-3-3-3-3-3-3-3-2-2-2-2-2-2-2-2-5-5-5-5-5-5-5-5-|

Chorus
F#|------------------------------------------------------------------------------------------------------------|
C#|---------------------------------------------------------------------------------------------2-0-----0------|
G#|-3--3--3-3-3-3-3--3--3--3--3--3--3-3-3-3-3--3--3--3----------------------------------------------3-2---3-2-0|
C#|-----------------------------------------------------2--2--2-2-2-2-2--2--2--2--2--2--2-2-2-2----------------|

F#|------------------------------------------------------------------------------------------------------------|
C#|------------------------------------------------------------------------------------------------------------|
G#|---------------------------0--0--0-0-0-0-0--0--0--0---------------------------------------------------------|
C#|-3--3--3-3-3-3-3--3--3--3----------------------------5--5--5-5-5-5-5--5--5-5-5-5-5--5--5-5-5-5-5--5--5-5-5-5|

Main Riff x 2

Verse II
F#|--------------------------------------------|
C#|--------------------------------------------|
G#|-0----0-2-3----3----------------------------| x 2
C#|-----------------2----2-3----3-3-3----5--5-/|

F#|---------------------------------------------------------------|
C#|---------------------------------------------------------------|
G#|-0-0-0-0-0-0-0-0-3-3-3-3---------------------------------------| x 2
C#|-------------------------2-2-2-2-3-3-3-3-3-3-3-3-3-3-3-3-5--5--|

Pre-Chorus

Chorus

Bridge
F#|---------------------------------------------------------------------------------|
C#|---------------------------------------------------------------------------------|
G#|-----------------------------------------------------------------0-0-0-0-0-0-0-0-|
C#|-3-3-3-3-3-3-3-3-3-3-3-3-3-3-3-3-5-5-5-5-5-5-5-5-2-2-2-2-2-2-2-2-----------------|

F#|-------------------------------------------------------------------2--5-----|
C#|----------------------------------------------------------------2-----------|
G#|----3--3--3--------------------------------------------------0--------------|
C#|-------------3--3--3--3--3--3--3--3--5--5--5--5--2--2--2--2-----------------|

F#|-------------------------------------------------------------5--4--2--------|
C#|----------------------------------------------------------------------2-----|
G#|----3--3--3-----------------------------------------------------------------|
C#|-------------3--3--3--3--3--3--3--3--5--5--5--5--2--2--2--2-----------------|

F#|------------------------------------------------------------------2--5---------|
C#|---------------------------------------------------------------2---------------|
G#|----3-------------------------------------------------------0-------------3----|
C#|---------3--3--3--3--3--3--3--3--3--5--5--5--5--2--2--2--2---------------------|

Chorus x 2

End with:
F#|---------------------------------------------------------------------------|
C#|---------------------------------------------------------------------------|
G#|-0~------------------------------------------------------------------------|
C#|---------------------------------------------------------------------------|

Happy playing!

| /  slide up
| \  slide down
| h  hammer-on
| p  pull-off
| ~  vibrato
| +  harmonic
| x  Mute note
===============================================================================
Добавлено: 13.03.2016
Другие материалы по этой песне:
  • Аккорды и текст

Страница создана 13.03.2016
http://primanota.ru/the-wonder-years/palm-reader-chords.htm
Привет, Гость.
Предлагаем пройти революционный курс по гитаре.
Подарок от PrimaNota.Ru, забирай!