PrimaNota.ru - самый крупный в мире бесплатный архив песенных текстов, аккордов, табулатур и нот


The Wonder Years - No Closer To Heaven (album) - бас-таба, видео

Регистрация Запомнить меня
Войти через:  Facebook Google Twitter Vk Yandex Mail.ru

The Wonder Years - No Closer To Heaven (album) - бас-таба, видео

Печатать
Просмотров: 90
THE WONDER YEARS - NO CLOSER TO HEAVEN (2015)

Tabbed by: Ashy (XxThreeCheersxX)
Email: burdickash@gmail.com

NOTE: all of these songs were learned by ear and tabbed by me.  They are also posted individually on this site.

TRACKLIST:

1. Brothers &
2. Cardinals
3. A Song For Patsy Cline
4. I Don't Like Who I Was Then
5. Cigarettes And Saints
6. The Bluest Things On Earth
7. A Song For Ernest Hemingway
8. Thanks For The Ride
9. Stained Glass Ceilings
10. I Wanted So Badly To Be Brave
11. You In January
12. Palm Reader
13. No Closer To Heaven



TUNING: DROP C# (C# G# C# F#)




1. BROTHERS &

Come in at 0:57; play quietly
F#|-------------------------------------------------------------------------|
C#|-------------------------------------------------------------------------|
G#|-------------------------------------------------------------------------|
C#|-2--2--2--2--2--2--2--2--2--2--2--2--0--0--0--0--0--0--0--0--0--0--0--0--|
                                                                                      x 2
F#|-------------------------------------------------------------------------|
F#|-------------------------------------------------------------------------|
G#|-------------------------------------------------------------------------|
C#|-5--5--5--5--5--5--5--5--5--5--5--5--5--5--5--5--5--5--7--7--7--7--7--7--|



2. CARDINALS

Intro (no bass)

Verse I
F#|-------------------------------------------------------------------------|
C#|-------------------------------------------------------------------------|
G#|-------------------------------------------------------------------------| x 2
C#|-2--2--2--2--2--2--2--2--2--4--4--4--5--5--5--5--5--5--5--5--5--0--0--0--|

"Staring at a hole in your chest that's been dug there for decades"
F#|-------------------------------------------------------------------------|
C#|-------------------------------------------------------------------------|
G#|-------------------------------------------------------------------------| x 2
C#|-2--2-2-2-2--2-2-2-2--2-2-2-4--4--4--5--5-5-5-5--5-5-5-5--5-5-5-0--0--0--|

Pre-Chorus (come in at "Own again")
F#|-------------------------------------|
C#|-------------------------------------|
G#|-3--3-3-3-3--3-3-3-3--3-3-3-5--5--5--|
C#|-------------------------------------|

F#|-0~-----------------------------------------------------------------|
C#|---------4~------2~-------------------------------------------------|
G#|------------------------2~------3--3-3-3-3--3-3-3-3--3-3-3-5--5--5--|
C#|--------------------------------------------------------------------|

Chorus
F#|-------------------------------------------------------------------------------------|
C#|-------------------------------------------------------------------------------------|
G#|----------------------------------5--5--5--3--3-3-3-3-3--3-3-3-3-3--3-3-3-3-5--5--5--|
C#|-5--5-5-5-5-5--5-5-5-5-5--5-5-5-5----------------------------------------------------|

F#|-----------------------------------------------------------------------------------|
C#|-----------------------------------------------------------------------------------|
G#|----------------------------------5--5--5--3--3-3-3-3-3--3-3-3-3-3--3--3--5--5--5--|
C#|-5--5-5-5-5-5--5-5-5-5-5--5-5-5-5--------------------------------------------------|

Post-chorus
F#|---------------------------------|
C#|---------------------------------|
G#|---------------------------------|
C#|-2~------4~------5~------0~------|

Verse II (on the second time play staccato)
F#|-------------------------------------------------------------------------|
C#|-------------------------------------------------------------------------|
G#|-------------------------------------------------------------------------| x 2
C#|-2--2-2-2-2--2-2-2-2--2-2-2-4--4--4--5--5-5-5-5--5-5-5-5--5-5-5-0--0--0--|

Pre-Chorus II
F#|-0~--------------------------------------------5~------|
C#|---------4~------2~--------------------5~--------------|
G#|------------------------2~------3~---------------------|
C#|-------------------------------------------------------|

Chorus (same as before)

Bridge
F#|---------------------------------------------------------------------------|
C#|---------------------------------------------------------------------------|
G#|---------------------------------------------------------------------------| x 2
C#|-5---5x---5---5x---5---5x--0--0--0--2---2-2---2---2-2---2---2-2---4--4--4--|

F#|---------------------------------------------------------------------------|
C#|---------------------------------------------------------------------------|
G#|------------------------------------------------------------------2--2--2--| 
C#|-5---5x---5---5x---5---5x--0--0--0--2---2-2---2---2-2---2---2-2------------|

F#|---------------------------------------|
C#|---------------------------------------|
G#|-3--3-3-3-3-3-3-3-3-3-3-3-3-3-3-3-3-3x-|
C#|---------------------------------------|

Final Chorus
F#|-------------------------------------------------------------------------------------|
C#|-------------------------------------------------------------------------------------|
G#|----------------------------------5--5--5--3--3-3-3-3-3--3-3-3-3-3--3-3-3-3-5--5--5--| x 2
C#|-5--5-5-5-5-5--5-5-5-5-5--5-5-5-5----------------------------------------------------|

F#|-------------------------------------------------------------------------------------------------|
C#|-------------------------------------------------------------------------------------------------|
G#|-------------------------------------5-5-5-5-5-5-3-3-3-3-3-3-3-3-3-3-3-3-3-3-3-3-3-3-5-5-5-5-5-5-| 
C#|-5-5-5-5-5-5-5-5-5-5-5-5-5-5-5-5-5-5-------------------------------------------------------------|

F#|-------------------------------------------------------------------------------------------------|
C#|-------------------------------------------------------------------------------------------------|
G#|-------------------------------------5-5-5-5-5-5-3-3-3-3-3-3-3-3-3-3-3-3-3-3-3-3-3-3-------------| 
C#|-5-5-5-5-5-5-5-5-5-5-5-5-5-5-5-5-5-5-------------------------------------------------0-0-0-0-0-0-|

Outro
F#|----------------------------------|
C#|----------------------------------|
G#|----------------------------------|
C#|-5~-------------------------------|



3. A SONG FOR PATSY CLINE

Pre-Chorus ("I hear you cry on 'Faded Love'")
F#|-------------------------------------------------------------------------------|
C#|-------------------------------------------------------------------------------|
G#|-2~------------------------------------2~--------/5~--------/10~---------------|
C#|-----------0~--------5~--------------------------------------------------------|

Bridge I
F#|-----------------------------------------------------------------------|
C#|-----------------------------------------------------------------------|
G#|-----------------------------------------------------------------------|
C#|-9--9--------9\\\0-------------0----5--5--------5----5------------5----|

F#|-----------------------------------------------------------------|
C#|-----------------------------------------------------------------|
G#|-----------------------------------------------------------------|
C#|-9-----------9----0------------0----5-----------5----5--0--2--4--|

Verse II
F#|-----------------------------------------------------------------------------------|
C#|-----------------------------------------------------------------------------------|
G#|-5----5----5----5----7----7----7----7---\2----2----2----2--------------------------|
C#|-------------------------------------------------------------5----5----5--7--2--4--|

F#|-----------------------------------------------------------------------------------|
C#|-----------------------------------------------------------------------------------|
G#|------5----5----5--------------------------2----2----2----2------------------------|
C#|-0--------------------2--2--2----2----2------------------------5----5----5----5----|

F#|---------------------------------------------------------------------------------------|
C#|---------------------------------------------------------------------------------------|
G#|-------------------------7----7----7----7---\2----2----2----2--------------------------|
C#|-(5)~--------\0--0--0--------------------------------------------5----5----5--7--2--4--|

F#|--------------------------------------------------------------------------------------|
C#|--------------------------------------------------------------------------------------|
G#|-------5----5----5-------------------------2----2----2----2---------------------------|
C#|-0--0-----------------2--2--2----2----2------------------------5----5--5--5--4--5--7--|

Pre-Chorus II
F#|------------------------------------------------------------------------------|
C#|------------------------------------------------------------------------------|
G#|-----------5~--------10~------------------------------------------------------|
C#|-9~-------------------------------------9~--------0~--------5~----------------|

Chorus
F#|-----------------------------------------------------------------|
C#|-----------------------------------------------------------------|
G#|-5-5-5-5-5-5-5-5-------------------------------------------------| x 3
C#|-----------------7-7-7-7-7-7-7-7-5-5-5-5-5-5-5-5-5-5-5-5-5-5-5-5-|

F#|-----------------------------------------------------------------|
C#|-----------------------------------------------------------------|
G#|-5-5-5-5-5-5-5-5-------------------------------------------------|
C#|-----------------7-7-7-7-7-7-7-7-5-5-5-5-5-5-5-5-5-5-5--0--2--4--|

Bridge II
F#|-----------------------------------------------------------------------|
C#|-----------------------------------------------------------------------|
G#|-----------------------------------------------------------------------|
C#|-------------------------------0----5-----------5----5------------5----|

F#|-----------------------------------------------------------------|
C#|-----------------------------------------------------------------|
G#|-----------------------------------------------------------------|
C#|-9-----------9\\\0-------------0----5-----------5----5--0--2--4--|

F#|-----------------------------------------------------------------|
C#|-----------------------------------------------------------------|
G#|-----------------------------------------------------------------|
C#|-9-----------9----0------------0----5-----------5----5--0--2--4--|

F#|-----------------------------------------------------------------|
C#|-----------------------------------------------------------------|
G#|-----------------------------------------------------------------|
C#|-9-----------9----0------------0----5-----------5----5-----------|

Verse III x 4
F#|--------------------------------------------------------------------------------------|
C#|--------------------------------------------------------------------------------------|
G#|-7------5----7----9------12----9---10-----10--10--10----10--10--10----10--10--10--10--|
C#|--------------------------------------------------------------------------------------|

Chorus

Outro x 2
F#|-----------------------------------------------------------------|
C#|-----------------------------------------------------------------|
G#|-----------------------------------------------------------------|
C#|-9-----------9----0------------0----5-----------5----5--0--2--4--|



4. I DON'T LIKE WHO I WAS THEN

Intro
F#|-------------------------------------------------------------------------|
C#|-------------------------------------------------------------------------|
G#|-------------------4-4-4-4---4---4---0-0-0-0---0---0---2-2-2-2---2---2---| x 2
C#|-2-2-2-2---2---2---------------------------------------------------------|

Verse I
F#|-----------------------------------------------------------------|
C#|-----------------------------------------------------------------|
G#|---------------------------------4-4-4-4-4-4-4-4-4-4-4-4-4-4-4-4-|
C#|-2-2-2-2-2-2-2-2-2-2-2-2-2-2-2-2---------------------------------|

F#|---------------------------------------------------------------------------|
C#|---------------------------------------------------------------------------|
G#|-0-0-0-0-0-0-0-0-0-0-0-0-0-0-0-0-2~-------------------/6~------------------|
C#|---------------------------------------------------------------------------|

F#|-----------------------------------------------------------------|
C#|-----------------------------------------------------------------|
G#|---------------------------------4-4-4-4-4-4-4-4-4-4-4-4-4-4-4-4-|
C#|-2-2-2-2-2-2-2-2-2-2-2-2-2-2-2-2---------------------------------|

F#|-----------------------------------------------------------------|
C#|-----------------------------------------------------------------|
G#|-0-0-0-0-0-0-0-0-0-0-0-0-0-0-0-0-2-2-2-2-2-2-2-2-2-2-2-2-2-2-2-2-|
C#|-----------------------------------------------------------------|

Pre-Chorus
F#|-----------------------------------------------------------------|
C#|-----------------------------------------------------------------|
G#|-0-0-0-0-0-0-0-0-0-0-0-0-0-0-0-0-2-2-2-2-2-2-2-2-2-2-2-2-2-2-2-2-|
C#|-----------------------------------------------------------------|

F#|-----------------------------------------------------------------|
C#|-----------------------------------------------------------------|
G#|-7-7-7-7-7-7-7-7-5-5-5-5-5-5-5-5-0-0-0-0-0-0-0-0-0-0-0-0-0-0-0-0-|
C#|-----------------------------------------------------------------|

F#|-------------------------------------------|
C#|-------------------------------------------|
G#|-0--0--0--0--0--0--0--0--2--2--2--2--2x----|
C#|-------------------------------------------|

Chorus
F#|-------------------------------------------------------------------------------------------------|
C#|-------------------------------------------------------------------------------------------------|
G#|-------------------------------------------------0--0--0--0--0--0--0--0--0--0--0--0--0--0--0--0--|
C#|-2--2--2--2--2--2--2--2--2--2--2--2--2--2--2--2--------------------------------------------------|

F#|-------------------------------------------------------------------------------------------------------|
C#|-------------------------------------------------------------------------------------------------------|
G#|-7--7--7--6--6--6--6--6--4--4--4--4--2x----2x----0----0--0--0--0--0--0--0--0--0--0--0--x-x-x-x-x-x-x-x-|
C#|-------------------------------------------------------------------------------------------------------|

"If I could manage not to fuck this up"
F#|-------------------------------------------------------------------------------------------------|
C#|-------------------------------------------------------------------------------------------------|
G#|-4--4--4--4--4--4--4--4--4--4--4--4--7--7--9--9--2--2--2--2--2--2--2--2--2--2--2--2--7--7--6--6--|
C#|-------------------------------------------------------------------------------------------------|

F#|----------------------------------------------------------------------|
C#|----------------------------------------------------------------------|
G#|-0~----------------------------0~-------------------------------------|
C#|----------------------------------------------------------------------|

Verse II
F#|-----------------------------------------------------------------|
C#|-----------------------------------------------------------------|
G#|---------------------------------4-4-4-4-4-4-4-4-4-4-4-4-4-4-4-4-|
C#|-2-2-2-2-2-2-2-2-2-2-2-2-2-2-2-2---------------------------------|

F#|-----------------------------------------------------------------|
C#|-----------------------------------------------------------------|
G#|-0-0-0-0-0-0-0-0-0-0-0-0-0-0-0-0-2-2-2-2-2-2-2-2-2-2-2-2-2-2-2-2-|
C#|-----------------------------------------------------------------|

F#|-----------------------------------------------------------------|
C#|-----------------------------------------------------------------|
G#|---------------------------------4-4-4-4-4-4-4-4-4-4-4-4-4-4-4-4-|
C#|-2-2-2-2-2-2-2-2-2-2-2-2-2-2-2-2---------------------------------|

F#|---------------------------------------------------------|
C#|---------------------------------------------------------|
G#|-0-0-0-0-0-0-0-0-0-0-0-0-0-0-0-0-2--2--2--2--2--2--2--2--|
C#|---------------------------------------------------------|

Pre-Chorus II
F#|-------------------------------------------------------------------------------------------------|
C#|-------------------------------------------------------------------------------------------------|
G#|-0--0--0--0--0--0--0--0--7--7--7--7--7--7--7--7--0--0--0--0--0--0--0--0--4--4--4--4--4--4--6--6--|
C#|-------------------------------------------------------------------------------------------------|

F#|-------------------------------------------------------------------------------------------------|
C#|-------------------------------------------------------------------------------------------------|
G#|-0--0--0--0--0--0--0--0--7--7--7--7--7--7--7--7--2--2--2--2--2--2--2--2--2--2--2--2--2--2--2x----|
C#|-------------------------------------------------------------------------------------------------|

Chorus

Bridge (come in with the rest of the band) x 2
F#|-------------------------------------------------------------------------------------------------|
C#|-------------------------------------------------------------------------------------------------|
G#|-4--4--4--4--4--4--4--4--4--4--4--4--4--7--7--7--0--0--0--0--0--0--0--0--0--0--0--0--0--0--0--0--|
C#|-------------------------------------------------------------------------------------------------|

F#|-------------------------------------------------------------------------------------------------|
C#|-------------------------------------------------------------------------------------------------|
G#|-------------------------------------------------2--2--2--2--2--2--2--2--2--2--2--2--2--2--2-----|
C#|-4--4--4--4--4--4--4--4--4--4--4--4--4--4--4--4--------------------------------------------------|

Final Chorus
F#|-------------------------------------------------------------------------------------------------|
C#|-------------------------------------------------------------------------------------------------|
G#|-------------------------------------------------0--0--0--0--0--0--0--0--0--0--0--0--0--0--0--0--|
C#|-2~-------------------------------------x--x-----------------------------------------------------|

F#|---------------------------------------------------------------------------------------------------|
C#|---------------------------------------------------------------------------------------------------|
G#|-7--7--7--6--6--6--6--6--4--4--4--4--2x----2x----0----0--0--0--0--0--0--0--0--0--0--0--x--x--x--x--|
C#|---------------------------------------------------------------------------------------------------|

"If I could manage not to fuck this up"
F#|-------------------------------------------------------------------------------------------------|
C#|-------------------------------------------------------------------------------------------------|
G#|-4--4--4--4x----4--4--4x----4--4--4--7--7--9--9--2--2--2--2x----2--2--2x----2--2--2--7--7--6--6--|
C#|-------------------------------------------------------------------------------------------------|

F#|----------------------------------------------------------------------|
C#|----------------------------------------------------------------------|
G#|-0~-------------------------------------------------------------------|
C#|----------------------------------------------------------------------|



5. CIGARETTES AND SAINTS

Intro (no bass)

"I don't think he even knew your name"
F#|---------------------------------------------------------------------------------------|
C#|---------------------------------------------------------------------------------------|
G#|-----------0~------------------------------------0~--------4----2----0~----------------|
C#|-4~------------------2~----------------4~----------------------------------------------|

-Another break-

Come in again at "I know how they blame me"
F#|---------------------------------------------------------------------|
C#|---------------------------------------------------------------------|
G#|-----------0~------------------------------------0~--------4----2----|
C#|-4~------------------2~----------------4~----------------------------|

F#|-------------------------------------------------|
C#|-------------------------------------------------|
G#|-0-0-0-0-0-0-0-0-0-0-0-0-0-0-0-0-0-0-0-0-0-0-0-0-|
C#|-------------------------------------------------|

"I'm sure there ain't a heaven"
F#|-------------------------------------------------------------------6-4-2-------------------------|
C#|-------------------------------------------------------------------------------------------------|
G#|-------------------------4-4-4-2-2-2-0-0-0-0-0-0-------------0-0-0-------------------------------|
C#|-2-2-2-2-2-2-4-4-4-4-4-4-------------------------4-4-4-4-4-4-------------2-2-2-2-2-2-2-2-2-2-2-2-|

"I'm sure you're still singing"
F#|-------------------------------------------6-8-6-------------------6-4-2-------------------------|
C#|-------------------------------------------------------------------------------------------------|
G#|-------------------------4-4-4-6-6-6-0-0-0-------------------0-0-0-------------------------------|
C#|-2-2-2-2-2-2-4-4-4-4-4-4-------------------------4-4-4-4-4-4-------------2-2-2-2-2-2-2-2-2-x-x-x-|

"Cause you were heat lightning"
F#|-------------------------------------------------|
C#|-------------------------------------------------|
G#|-------------0-0-0-0-0-0-------------------------| x 2
C#|-4-4-4-4-4-4-------------2-2-2-2-2-2-2-2-2-2-2-2-|

"I'll bury your memories in the garden"
F#|-------------------------------------------------|
C#|-------------------------------------------------|
G#|-----------0~--------4----2----0~----------------|
C#|-4~----------------------------------------------|

-break-

"These wolves in their suits and ties"
F#|-------------------------------------------------|
C#|-------------------------------------------------|
G#|-------------------------0-0-0-0-0-0-0-0-0-0-0-0-| x 4
C#|-2-2-2-2-2-2-2-2-2-2-2-2-------------------------|

"This goddamn machine, hungry and heartless"
F#|-------------------------------------------------------------------------------------------6-4-2-|
C#|-------------------------------------------------------------------------------------------------|
G#|-------------------------0-0-0-0-0-0-0-0-0-0-0-0-------------------------0-0-0-0-0-0-0-0-0-------|
C#|-2-2-2-2-2-2-2-2-2-2-2-2-------------------------2-2-2-2-2-2-2-2-2-2-2-2-------------------------|

F#|-------------------------------------------------------------------------------------------6-8-6-|
C#|-------------------------------------------------------------------------------------------------|
G#|-------------------------0-0-0-0-0-0-0-0-0-0-0-0-------------------------0-0-0-0-0-0-0-0-0-------|
C#|-2-2-2-2-2-2-2-2-2-2-2-2-------------------------2-2-2-2-2-2-2-2-2-2-2-2-------------------------|

"You can't have my friends"
F#|--------------------------------------------------------------------|
C#|--------------------------------------------------------------------|
G#|-----------------------------------0-0-0------0-0------0-0------0-0-|
C#|-2-2-2-------2-2------2-2------2-2----------------------------------|

F#|-----------------------------------------------------------------------------|
C#|-----------------------------------------------------------------------------|
G#|-----------------------------------0-0-0-0-0-0-0-0-0-0-0-0-------------------|
C#|-2-2-2-------2-2------2-2------2-2-------------------------2~----------------|



6. THE BLUEST THINGS ON EARTH

Verse I
F#|---------|
C#|---------|
G#|-4-5-4-2-|
C#|---------|

F#|----------------------------------------------------------------|
C#|----------------------------------------------------------------|
G#|-------------0-0---------4-4-4-4---------4-4--4---------4-5-4-2-| x 2
C#|-2-2-2-4-4-4-----4-4-4-4---------0-0-0-0--------0-0-0-0---------|

Interlude (come in at "clutching a memory")
F#|------------------------------|
C#|------------------------------|
G#|-0----/4----/5----/10~--------|
C#|------------------------------|

Pre-Chorus
F#|---------------------------------------------------------|
C#|---------------------------------------------------------|
G#|---------------------------------------------------------|
C#|-7-7----7-7----4-4----4-4----2-2----2-2----2-2----2-2----|

F#|---------------------------------------------------------|
C#|---------------------------------------------------------|
G#|---------------------------------------------------------|
C#|-4-4----4-4----4-4----4-4----7-7----7-7----7-7----7-7----|

F#|---------------------------------------------------------|
C#|---------------------------------------------------------|
G#|---------------------------------------------------------|
C#|-7-7----7-7----4-4----4-4----2-2-2-2-2-2-2-2-2-2-2-2x----|

F#|------------------------------|
C#|------------------------------|
G#|------------------------------|
C#|-0~----------------------0----|

Chorus
F#|---------------------------------------------------------------------------------------------------|
C#|---------------------------------------------------------------------------------------------------|
G#|-------------------------------------------------------------4-4-4-4-4-4-------------4-4-4-4-4-2-0-|
C#|-4-4-4-4-4-4-4-4-4-4-4-4-2-2-2-2-2-2-2-2-2-2-2-2-0-0-0-0-0-0-------------0-0-0-0-0-0---------------|

F#|---------------------------------------------------------------------------------------------------|
C#|---------------------------------------------------------------------------------------------------|
G#|-----------------------------------------0-2-4-2-------------4-4-4-4-4-4---------------------------|
C#|-4-4-4-4-4-4-6-6-6-6-7-7-2-2-2-2-2-2-2-2---------0-0-0-0-0-0-------------0-0-0-0-0-0x--------------|

Post-Chorus
F#|----------------------------------------------------------------|
C#|----------------------------------------------------------------|
G#|-------------0-0---------4-4-4-4---------4-4--4---------4-5-4-2-| x 2
C#|-2-2-2-4-4-4-----4-4-4-4---------0-0-0-0--------0-0-0-0---------|

Verse II
F#|------------------------------------------------|
C#|------------------------------------------------|
G#|-7-7----7-7--7-7----7-7--7-7----7-7--7-7----7-7-|
C#|------------------------------------------------|

F#|------------------------------------------------------------------------|
C#|------------------------------------------------------------------------|
G#|-9-9----9-9--4-4----4-4--5-5----5-5--5-5----5-5--5-5----5-5-------------|
C#|-------------------------------------------------------------0-0----0-0-|

F#|------------------------------------------------|
C#|------------------------------------------------|
G#|-7-7----7-7--7-7----7-7--7-7----7-7--7-7----7-7-|
C#|------------------------------------------------|

F#|-------------------------------------------------------------------------|
C#|-------------------------------------------------------------------------|
G#|-9-9----9-9--4-4----4-4--5-5----5-5--5-5----5-5--5-5----5-5--5x--5x--5x--|
C#|-------------------------------------------------------------------------|

Pre-Chorus II
F#|---------------------------------------------------------------------------------------------------|
C#|---------------------------------------------------------------------------------------------------|
G#|---------------------------------------------------------------------------------------------------|
C#|-7-7-7-7-7-7-4-4-4-4-4-4-2-2-2-2-2-2-2-2-2-2-2-2-4-4-4-4-4-4-4-4-4-4-4-7-4-0-0-0-0-0-0-0-0-0-0-0-0-|

F#|---------------------------------------------------------------------------|
C#|---------------------------------------------------------------------------|
G#|---------------------------------------------------------------------------|
C#|-7-7-7-7-7-7-4-4-4-4-4-4-2-2-2-2-2-2-2-2-2-2-2-2-0x------------------------|

Chorus II
F#|---------------------------------------------------------------------------------------------------|
C#|---------------------------------------------------------------------------------------------------|
G#|-------------------------------------------------------------4-4-4-4-4-4-------------4-4-4-4-4-2-0-|
C#|-4-4-4-4-4-4-4-4-4-4-4-4-2-2-2-2-2-2-2-2-2-2-2-2-0-0-0-0-0-0-------------0-0-0-0-0-0---------------|

F#|---------------------------------------------------------------------------------------------------|
C#|---------------------------------------------------------------------------------------------------|
G#|-----------------------------------------0-2-4-2-------------4-4-4-4-4-4-------------4-4-4-4-4-4-4-|
C#|-4-4-4-4-4-4-6-6-6-6-7-7-2-2-2-2-2-2-2-2---------0-0-0-0-0-0-------------0-0-0-0-0-0---------------|

Bridge
F#|------------------------------------------------|
C#|------------------------------------------------|
G#|-4~-------5~--------0~--------------------------|
C#|--------------------------------------6~--------|

F#|---------------------------------------------------------------------------|
C#|---------------------------------------------------------------------------|
G#|--------------------4~--------5~-------0~----------------------------------|
C#|-4~--------------------------------------------------------------6~--------|

F#|---------------------------------------------------------|
C#|---------------------------------------------------------|
G#|-----------------------------4--4--4-4x----5--5--5-5x----|
C#|-4--4--4-4x----4--4--4-4x--------------------------------|

F#|---------------------------------------------------------|
C#|---------------------------------------------------------|
G#|-0--0--0-0x----0--0--0-0x----0--0--0-0x------------------|
C#|-------------------------------------------6--6--6-6x----|

F#|---------------------------------------------------------|
C#|---------------------------------------------------------|
G#|-----------------------------4--4--4-4x----5--5--5-5x----|
C#|-4--4--4-4x----4--4--4-4x--------------------------------|

F#|-------------------------------------------------------|
C#|-------------------------------------------------------|
G#|-0--0--0-0x----0--0--0-0x------------------------------|
C#|-------------------------------------------6x--6x--6x--|

Final Chorus
F#|---------------------------------------------------------------------------------------------------|
C#|---------------------------------------------------------------------------------------------------|
G#|-------------------------------------------------------------4-4-4-4-4-4-------------4-4-4-4-4-2-0-|
C#|-4-4-4-4-4-4-4-4-4-4-4-4-2-2-2-2-2-2-2-2-2-2-2-2-0-0-0-0-0-0-------------0-0-0-0-0-0---------------|

F#|---------------------------------------------------------------------------------------------------|
C#|---------------------------------------------------------------------------------------------------|
G#|-----------------------------------------0-2-4-2-------------4-4-4-4-4-4-------------4-4-4-4-4-4-4-|
C#|-4-4-4-4-4-4-6-6-6-6-7-7-2-2-2-2-2-2-2-2---------0-0-0-0-0-0-------------0-0-0-0-0-0---------------|

Outro
F#|-------------------------------------|
C#|-------------------------------------|
G#|----------4--4-4-4----------4--4-4-4-|
C#|-0--0-0-0----------0--0-0-0----------|



7. A SONG FOR ERNEST HEMINGWAY

Verse I 
F#|-----------------------------------------------------------------|
C#|-----------------------------------------------------------------|
G#|-7-7-7-7-7-7-7-7-----------------4-4-4-4-7-7-7-7-----------------|
C#|-----------------6-6-6-6-6-6-6-6-----------------7-7-7-7-7-7-7-7-|
                                                                       x 2     
F#|-----------------------------------------------------------------|
C#|-----------------------------------------------------------------|
G#|---------------------------------7-7-7-7-7-7-7-7-7-7-7-7-7-7-7-7-|
F#|-4-4-4-4-4-4-4-4-7-7-7-7-7-7-7-7---------------------------------|

F#|-----------------------------------------------------------------|
C#|-----------------------------------------------------------------|
G#|---------------------------------4-4-4-4-4-4-4-4-2~--------------|
C#|-7-7-7-7-7-7-7-7-4-4-4-4-4-4-4-4---------------------------------|

Pre-Chorus (I'll be your dead bird)
F#|-----------------------------------------------------------------|
C#|-----------------------------------------------------------------|
G#|-0~------1--2~------------------------------0~------1--2~--------|
C#|--------------------4--2~-----1--0~------2-----------------------|

Verse II
F#|-----------------------------------------------------------------|
C#|-----------------------------------------------------------------|
G#|-7-7-7-7-7-7-7-7-----------------4-4-4-4-7-7-7-7-----------------|
C#|-----------------6-6-6-6-6-6-6-6-----------------7-7-7-7-7-7-7-7-|
                                                                       x 2     
F#|-----------------------------------------------------------------|
C#|-----------------------------------------------------------------|
G#|---------------------------------7-7-7-7-7-7-7-7-7-7-7-7-7-7-7-7-|
F#|-4-4-4-4-4-4-4-4-7-7-7-7-7-7-7-7---------------------------------|

F#|-----------------------------------------------------------------|
C#|-----------------------------------------------------------------|
G#|---------------------------------4-4-4-4-4-4-4-4-2-2-2-2-2-2-2-2-|
C#|-7-7-7-7-7-7-7-7-4-4-4-4-4-4-4-4---------------------------------|

Pre-Chorus II
F#|-----------------------------------------------------------------|
C#|-----------------------------------------------------------------|
G#|-0-0-0-0-0-0-0-0-2-2-2-2-2-2-2-2-7-7-7-7-7-7-7-7-5-5-5-5-5-5-5-5-|
C#|-----------------------------------------------------------------|

F#|---------------------------------------------------------------------|
C#|---------------------------------------------------------------------|
G#|-0-0-0-0-0-0-0-0-2-2-2-2-2x--2x--2x--7-7-7-7-7-7-7-7-5-5-5-5-5-5-5-5-|
C#|---------------------------------------------------------------------|

F#|-----------------------------------------------------------------|
C#|-----------------------------------------------------------------|
G#|-0-0-0-0-0-0-0-0-2-2-2-2-2-2-2-2-7-7-7-7-7-7-7-7-5-5-5-5-5-5-5-5-|
C#|-----------------------------------------------------------------|

F#|---------------------------------|
C#|---------------------------------|
G#|-0-0-0-0-0-0-0-0-----------------|
C#|-----------------4-4-4-4-4~----\-|

Chorus ("December's got me backed into a corner again")
F#|-----------------------------------------------------------------|
C#|-----------------------------------------------------------------|
G#|-7-7-7-7-------------------------4-4-4-4-------------------------| x 2
C#|---------6-6-6-6-7-7-7-7-9-9-9-9---------6-6-6-6-4-4-4-4-4-4-4-4-|

Pre-Chorus III
F#|--------------------------------------------|
C#|--------------------------------------------|
G#|-0~------1--2~------------------------------| x 2
C#|--------------------4--2~-----1--0~------2--|

F#|--------------------------------------------|
C#|--------------------------------------------|
G#|-0~------1--2~------------------------------|
C#|--------------------------------------------|

Chorus



8. THANKS FOR THE RIDE

Intro
F#|-----------------------------------------------------------------|
C#|-----------------------------------------------------------------|
G#|-0-0-0-0-0-0-0-0-3-3-3-3-3-3-3-3---------------------------------|
C#|---------------------------------5-5-5-5-5-5-5-5-5-5-5-5-5-5-5-5-|

F#|---------------------------------|
C#|---------------------------------|
G#|-0-0-0-0-0-0-0-0-3-3-3-3-3-3-3-3-|
C#|---------------------------------|

Verse I x 2
F#|-----------------------------------------------------------------|
C#|-----------------------------------------------------------------|
G#|---------------------------5-5-5-3-3-3-3-3-3-3-3-3-3-3-3-3-3-3-3-|
C#|-5-5-5-5-5-5-5-5-2-2-2-2-2---------------------------------------|

F#|-----------------------------------------------------------------|
C#|-5-5-5-5-5-5-5-5-------------------------------------------------|
G#|-----------------7-7-7-7-7-7-7-7-3-3-3-3-3-3-3-3-3-3-3-3-3-3-3-3-|
C#|-----------------------------------------------------------------|

Pre-Chorus
F#|-------------------------------------------------------------------------------------|
C#|---------------------------------------------------------------------------------17\-|
G#|-3-3-3-2-2-2-2-2-0--0--0--12\-3-3-3-2-2-2-2-2-0--0--0--0--3-3-3-2-2-2-2-2-0x---------|
C#|-------------------------------------------------------------------------------------|

F#|---------------------------------|
C#|-2-2-2-2-2-2-2-2-0-0-0-0-0-0-0-0-|
G#|---------------------------------|
C#|---------------------------------|

Chorus
F#|-----------------------------------------------------------------|
C#|-----------------------------------------------------------------|
G#|-------------------------------------------------3-3-3-3-2-2-2-2-|
C#|-5-5-5-5-5-5-5-5-0-0-0-0-0-0-0-0-2-2-2-2-2-2-2-2-----------------|

F#|---------------------------------------------------------------------------|
C#|---------------------------------------------------------------------------|
G#|-0-0-0-0-0-0-0-0-0-0-0-0-2-2-2-2-3-3-3-3-3-3-3-3-3x------------------------|
C#|---------------------------------------------------------------------------|

Intro

Verse II
F#|-----------------------------------------------------------------|
C#|-----------------------------------------------------------------|
G#|---------------------------5-5-5-3-3-3-3-3-3-3-3-3-3-3-3-3-3-3-3-|
C#|-5-5-5-5-5-5-5-5-2-2-2-2-2---------------------------------------|

F#|-----------------------------------------------------------------|
C#|-5-5-5-5-5-5-5-5-------------------------------------------5-5-5-|
G#|-----------------7-7-7-7-7-7-7-7-3-3-3-3-3-3-3-3-3-3-3-3-3-------|
C#|-----------------------------------------------------------------|

F#|-----------------------------------------------------------------|
C#|-----------------------------------------------------------5-5-5-|
G#|---------------------------5-5-5-3-3-3-3-3-3-3-3-3-3-3-3-3-------|
C#|-5-5-5-5-5-5-5-5-2-2-2-2-2---------------------------------------|

F#|---------------------------7-7-7-5-5-5-5-5-5-5-5-5-4-2-4-2-0-----|
C#|-5-5-5-5-5-5-5-5---------------------------------------------4-0-|
G#|-----------------7-7-7-7-7---------------------------------------|
C#|-----------------------------------------------------------------|

Pre-Chorus II
F#|---------------------------------|
C#|---------------------------------|
G#|-3-3-3-2-2-2-2-2-0-0-0-0-0-0-0-0-| x 3
C#|---------------------------------|

F#|-----------------------------|
C#|-2--2--2--2--0-0-0-0-0-0-0-0-|
G#|-----------------------------|
C#|-----------------------------|

Chorus II
F#|-----------------------------------------------------------------|
C#|-----------------------------------------------------------------|
G#|-------------------------------------------------3-3-3-3-2-2-2-2-|
C#|-5-5-5-5-5-5-5-5-0-0-0-0-0-0-0-0-2-2-2-2-2-2-2-2-----------------|

F#|-----------------------------------------------------------------|
C#|-----------------------------------------------------------------|
G#|-0-0-0-0-0-0-0-0-0-0-0-0-2-2-2-2-3-3-3-3-3-3-3-3-3-3-3-3-3-3-3-3-|
C#|-----------------------------------------------------------------|

F#|-----------------------------------------------------------------|
C#|-----------------------------------------------------------------|
G#|-------------------------------------------------3-3-3-3-2-2-2-2-|
C#|-5-5-5-5-5-5-5-5-0-0-0-0-0-0-0-0-2-2-2-2-2-2-2-2-----------------|

F#|---------------------------------------------------------------------------|
C#|---------------------------------------------------------------------------|
G#|-0-0-0-0-0-0-0-0-0-0-0-0-2-2-2-2-3-3-3-3-3-3-3-3-/6x-----------------------|
C#|---------------------------------------------------------------------------|

Bridge
F#|-----------------------------------------------------------------------------------------|
C#|-----------------------------------------------------------------------------------------|
G#|-7-7-7-7--7-7--6-6-6-6--6-6--5-5-5-5--5-5--4-4-4-4--4-4--3-3-3-3-3-3-3-3-3-3-3-3-6-6-6-6-|
C#|-----------------------------------------------------------------------------------------|

F#|-----------------------------------------------------------------------------------------|
C#|-----------------------------------------------------------------------------------------|
G#|-7-7-7-7--7-7--6-6-6-6--6-6----------------4-4-4-4--4-4--3-3-3-3-3-3-3-3-3-3-3-3-3-3-3-3-|
C#|-----------------------------0-0-0-0--0-0------------------------------------------------|

F#|---------------------------------|
C#|---------------------------------|
G#|-3-3-3-3-3-3-3-3-6-6-3-3-0-0-----|
C#|-----------------------------4-4-|

Final Chorus
F#|-----------------------------------------------------------------|
C#|-----------------------------------------------------------------|
G#|-------------------------------------------------3-3-3-3-2-2-2-2-|
C#|-5-5-5-5-5-5-5-5-0-0-0-0-0-0-0-0-2-2-2-2-2-2-2-2-----------------|

F#|---------------------------------------------------------------------|
C#|---------------------------------------------------------------------|
G#|-0-0-0-0-0-0-0-0-0-0-0-0-2-2-2-2-3-3-3-3-3-3-3-3-3-3-3-3/15-17-15-14-|
C#|---------------------------------------------------------------------|

F#|-----------------------------------------------------------------|
C#|-----------------------------------------------------------------|
G#|-------------------------------------------------3-3-3-3-2-2-2-2-|
C#|-5-5-5-5-5-5-5-5-0-0-0-0-0-0-0-0-2-2-2-2-2-2-2-2-----------------|

F#|---------------------------------------------------------------------------|
C#|---------------------------------------------------------------------------|
G#|-0-0-0-0-0-0-0-0-0-0-0-0-2-2-2-2-3-3-3-3-3-3-3-3-3x------------------------|
C#|---------------------------------------------------------------------------|



9. STAINED GLASS CEILINGS

Intro
F#|-----------------------------------------|
C#|-----------------------------------------|
G#|-----------------------------------------|
C#|-5----5----5----5----5----5----5----5----|

Verse x 2
F#|-------------------------------------------------------------------------|
C#|-------------------------------------------------------------------------|
G#|-5~----------------2~----------------------------------------------------|
C#|-------------------------------------4~----------------5~----------------|

Quiet Chorus
F#|-----------------------------------------------------------------------------------------------------------|
C#|-----------------------------------------------------------------------------------------------------------|
G#|-5~-------------------------------------5~-----------------------------------0~--------5----2--------------|
C#|-----------7~--------5~---------------------------7~-------5~------------------------------------5~--------|

Verse x 2

Chorus I
F#|-------------------------------------------------------------------------|
C#|-------------------------------------------------------------------------|
G#|-5---5-5-5-5-5-5---------------------------------------------------------| x 2
C#|-----------------7---7-7-7-7-7-7-5----5----5----5----5----5----5----5----|

F#|-------------------------------------------------------------------------|
C#|-------------------------------------------------------------------------|
G#|-0-0-0-0-0-0-0-0-5-5-5-5-2-2-2-2-----------------------------------------| x 2
C#|---------------------------------5----5----5----5----5----5----5----5----|

Bridge (come in after a short pause)
F#|-----------------------------------------------------------------|
C#|-----------------------------------------------------------------|
G#|-----------------------------------------------------------------| x 3
C#|-4-4-4-4-4-2-4-4-4-4-4-4-4-2-4-4-5-5-5-5-5-5-5-5-5-5-5-5-5-5-5-5-|

F#|---------------------------------|
C#|---------------------------------|
G#|---------------------------------|
C#|-7-7-7-7-7-7-7-7-7-7-7-7-7-7-7-7-|

"John Wayne with a fucking god complex"
F#|-----------------------------------------------------------------|
C#|-----------------------------------------------------------------|
G#|-----------------------------------------------------------------| x 3
C#|-9-9-9-9-9-9-9-9-9-9-9-9-9-9-9-9-5-5-5-5-5-5-5-5-5-5-5-5-5-5-5-5-|

F#|-----------------------------------------------------------------|
C#|-----------------------------------------------------------------|
G#|-5-5-5-5-5-5-5-5-5-5-5-5-5-5-5-5-5-5-5-5-5-5-5-5-5-5-5-5-5-------|
C#|-----------------------------------------------------------7-7-7-|

(Jason Butler enters)
F#|-----------------------------------------------------------------|
C#|-----------------------------------------------------------------|
G#|-----------------------------------------------------------------|
C#|-9-9-9-9-9-9-9-9-9-9-9-9-9-9-9-9-5-5-5-5-5-5-5-5-5-5-5-5-5-5-5-5-|
                                                                          x 2
F#|-----------------------------------------------------------------|
C#|-----------------------------------------------------------------|
G#|-5-5-5-5-5-5-5-5-5-5-5-5-5-5-5-5-5-5-5-5-5-5-5-5-5-5-5-5-5-------|
C#|-----------------------------------------------------------7-7-7-|

F#|---------------------------------------------------------------------------|
C#|---------------------------------------------------------------------------|
G#|---------------------------------------------------------------------------|
C#|-9----9----9----9--------9----9-9-9-9-5----5----5----5--------5----5-5-5-5-|

F#|---------------------------------------------------------------------------|
C#|---------------------------------------------------------------------------|
G#|---------------------------------------------------------------------------|
C#|-0----0----0----0--------0----0-0-0-0-0----0----0----0--------0----0-7-7-7-|

F#|-------------------------------------------------------------------------|
C#|-------------------------------------------------------------------------|
G#|-------------------------------------------------------------------------|
C#|-9----9----9-9-9--------9----9-9-9-9-5----5----5-5-5--------5----5-5-5-5-|

F#|-------------------------------------------------------------------------|
C#|-------------------------------------------------------------------------|
G#|-------------------------------------------------------------------------|
C#|-0----0----0-0-0--------0----0-0-0-0-0----0----0-0-0--------0----0-7-7-7-|

Final Chorus
F#|--------------------------------------------------------------------|
C#|--------------------------------------------------------------------|
G#|--------------------------------------------------------------------|
C#|-9----9----9-9-9-9----------------5----5----5-5-5-5---------------5-|

F#|--------------------------------------------------------------------|
C#|--------------------------------------------------------------------|
G#|--------------------------------------------------------------------|
C#|-0----0----0-0-0-0----------------0----0----0-0-0-0-----------------|

F#|--------------------------------------------------------------------|
C#|--------------------------------------------------------------------|
G#|--------------------------------------------------------------------|
C#|-9----9----9-9-9-9----------------5----5----5-5-5-5---------------5-|

F#|---------------------------------------------------------------------------------|
C#|---------------------------------------------------------------------------------|
G#|---------------------------------------------------------------------------------|
C#|-0----0----0-0-0-0----------------0----0----0----0----0-0-0-0-0-0-0-0-9~---------|



10. I WANTED SO BADLY TO BE BRAVE

Intro
F#|--------------------------------------------------------------------|
C#|-------------------------------------------------------------4-4-2--|
G#|-14\--------------------------2-2-2---------------------------------|
C#|------2-2-2-2-2-2-2-2-2-2-2-2-------2--2-2-2-2-2-2-2-2-2-2-2--------|

F#|------------------------|
C#|------------------------|
G#|-4--4--3--3--2~--------/|
C#|------------------------|

Verse I
F#|-------------------------------------------------------------------------------------------------|
C#|-------------------------------------------------------------------------------------------------|
G#|-/12-12-12-12-12-12-12-12-12-12-12-12-12-12-12-12-12-12-12-12-12-12-12-12-12-12-14-14-14--16-16--|
C#|-------------------------------------------------------------------------------------------------|

F#|-----------------------------------------------------------------|
C#|-----------------------------------------------------------------|
G#|-2-2-2-2-2-2-2-2-4-4-4-4-4-4-4-4-0-0-0-0-0-0-0-0-0-0-0-0-0-0-0-0-|
C#|-----------------------------------------------------------------|

F#|-----------------------------------------------------------------|
C#|-----------------------------------------------------------------|
G#|-0-0-0-0-0-0-0-0-0-0-0-0-0-0-0-0-0-0-0-0-0-0-0-0-0-0-2-2-2--4-4--|
C#|-----------------------------------------------------------------|

F#|-----------------------------------------------------------------|
C#|-----------------------------------------------------------------|
G#|-2-2-2-2-2-2-2-2-4-4-4-4-4-4-4-4-0-0-0-0-0-0-0-0-0-0-0-0-0-0-0-0-|
C#|-----------------------------------------------------------------|

Interlude
F#|----------------------------------------------------------------------------------|
C#|----------------------------------------------------------------------------------|
G#|-----------5~-------0~--------------------------5~--------0--0--0--0--0--0--0--0--|
C#|-4~-----------------------------------4~------------------------------------------|

Verse II (the rhythm here is a bit weird, you'll have to listen closely to get a better idea of it)
F#|----------------------------------------------------------|
C#|----------------------------------------------------------|
G#|-0-0--0-0--0-0--0--0--0-0-0--0-0--0-0--0-0--0---2-2--4-4--|
C#|----------------------------------------------------------|

F#|---------------------------------------------------------|
C#|---------------------------------------------------------|
G#|-2-2--2-2--2-2--2--4--4-4-4--0-0--0-0--0-0--0--0--0-0-0--|
C#|---------------------------------------------------------|

F#|----------------------------------------------------------|
C#|----------------------------------------------------------|
G#|-0-0--0-0--0-0--0--0--0-0-0--0-0--0-0--0-0--0---2-2--4-4--|
C#|----------------------------------------------------------|

F#|---------------------------------------------------------|
C#|---------------------------------------------------------|
G#|-2-2--2-2--2-2--2--4--4-4-4--0-0-0-0-0-0-0-0-0-0-0-0-0-0-|
C#|---------------------------------------------------------|

Chorus
F#|-----------------------------------------------------------------|
C#|----------------------------------------------------------4-4-2--|
G#|---------------------------2-2-2---------------------------------|
C#|---2-2-2-2-2-2-2-2-2-2-2-2-------2--2-2-2-2-2-2-2-2-2-2-2--------|
                                                                                      x 2
F#|----------------------------|                
C#|----------------------------|
G#|-4--4--3--3--2--2-2-2-2-2-2-|
C#|----------------------------|

F#|-------------------------------------------------------------------------|
C#|-------------------------------------------------------------------------|
G#|-0--0--0--0--0--0--0--0--0--0--0--0--0--0--0--0-----------------4-----2--|
C#|-------------------------------------------------2--2--2--2--2-----4-----|

Verse III 
F#|---------------------------------------------------------|
C#|---------------------------------------------------------|
G#|-0-0--0-0--0-0--0--0--0-0-0--0-0--0-0--0-0--0--2-2--4-4--|
C#|---------------------------------------------------------|

F#|---------------------------------------------------------|
C#|---------------------------------------------------------|
G#|-2-2--2-2--2-2--2--4--4-4-4--0-0--0-0--0-0--0--0--0-0-0--|
C#|---------------------------------------------------------|

F#|---------------------------------------------------------|
C#|---------------------------------------------------------|
G#|-0-0--0-0--0-0--0--0--0-0-0--0-0--0-0--0-0--0--2-2--4-4--|
C#|---------------------------------------------------------|

F#|---------------------------------------------------------|
C#|---------------------------------------------------------|
G#|-2-2--2-2--2-2--2--4--4-4-4--0-0--0-0--0-0--0--0-0-------|
C#|---------------------------------------------------------|

Interlude II
F#|--------------------------------------------------------------------------------|
C#|--------------------------------------------------------------------------------|
G#|-----------5~-------0~----------------------------------------------------------|
C#|-4~------------------------------------4~--------6~-------7--7--7--7--7--7--x-x-|

Chorus II
F#|-----------------------------------------------------------------|
C#|----------------------------------------------------------4-4-2--|
G#|---------------------------2-2-2---------------------------------|
C#|---2-2-2-2-2-2-2-2-2-2-2-2-------2--2-2-2-2-2-2-2-2-2-2-2--------|
                                                                                      x 2
F#|----------------------------|                
C#|----------------------------|
G#|-4--4--3--3--2--2-2-2-2-2-2-|
C#|----------------------------|

F#|-------------------------------------------------------------|
C#|-------------------------------------------------------------|
G#|-0--0--0--0--0--0--0--0--0--0--0--0--0--0--0--0-----4-----2--|
C#|-------------------------------------------------2-----4-----|

Bridge
F#|---------------------------------------------------------------------------------------------------|
C#|---------------------------------------------------------------------------------------------------|
G#|-----------------------------------------4-----2--0-0--0-0--0-0--0-0-0-0--0-0-0-0--0-0----4-----2--| x 2
C#|-2-2--2-2--2-2--2-2-2-2--2-2-2-2--2-2-2-----4------------------------------------------2-----2-----|

F#|-------------------------------------------------------------|
C#|-------------------------------------------------------------|
G#|-----------------------------------------4-----2--0~---------| (short break)
C#|-2-2--2-2--2-2--2-2-2-2--2-2-2-2--2-2-2-----4----------------|

"They'll put a gun in your hand, call you wake until you're violent"
F#|-----------------------------------2--2--------------------------------|
C#|----------2~-----------------------------2-----------------------------|
G#|-0--4--0------------------------------------0~-------------------------|
C#|-----------------------------------------------------------------------|

"We could be the heroes that we always said we'd be"
F#|----------------------------------------------------------------------------------|
C#|----------------------------------------------------------------------------2x----|
G#|-4~--------3~-------2~---------------12\0--0--0--0--0--0--0--0--0--0--0--0--------|
C#|----------------------------------------------------------------------------------|

Outro
F#|-------------------------------------------------------------------------------------------------|
C#|-------------------------------------------------------------------------------------------------|
G#|-------------------------------------------------0--0--0--0--0--0--0--0--0--0--0--0-----4-----2--| x 2
C#|-2--2--2--2--2--2--2--2--2--2--2--2--2--2--2--2--------------------------------------2-----4-----|

F#|-------------------------------------------------------------------------------------------------|
C#|-------------------------------------------------------------------------------------------------|
G#|-------------------------------------------------0-----------0-----------0--------------4-----2--|
C#|-2--2--2--2--2--2--2--2--2--2--2--2--2--2--2--2--------------------------------------2-----4-----|


11. YOU IN JANUARY

Intro/Verse I
"You were the only thing I got right"
F#|------------------------------------|
C#|------------------------------------|
G#|------------------1~----------------|
C#|-3~---------------------------------|

F#|-------------------------------------------------|
C#|-------------------------------------------------|
G#|-6--6--6--6--------------------------------------| x 2
C#|-------------8--8--8--8--6--6--6--6--6--6--6--6--|

Verse II x 2
F#|-------8---------------------------------------------|
C#|-------------------8-------------10------------------|
G#|-6--6-----6---------------------------------------5--|
C#|-------------8--8-----8--10--10------10----8--10-----|

F#|-------8---------------------------------------------|
C#|-------------------8-------------10------------------|
G#|-6--6-----6------------------------------------------|
C#|-------------8--8-----8--10--10------10----10--8--6--|

Pre-Chorus
F#|---------------------------------------------|
C#|---------------------------------------------|
G#|---------------------------------------------|
C#|-3~----------------/10--10--8~---------------|

Chorus
F#|---------------------------------------------------------------------------------------------------------|
C#|---------------------------------------------------------------------------------------------------------|
G#|-------------------------6--6--6--6--6--6--6--6----------------------------------------------------------|
C#|-6--6--6--6--6--6--6--6--------------------------10--10--10--10--10--10--10--10--8--8--8--8--8--8--8--8--|

F#|---------------------------------------------------------------------------------|
C#|---------------------------------------------------------------------------------|
G#|-------------------------6--6--6--6--6--6--6--6----------------------------------|
C#|-6--6--6--6--6--6--6--6--------------------------10--10--10--10--10--10--10--10--|

F#|-----------------------------------------------------------------|
C#|-----------------------------------------------------------------|
G#|-----------------------------------------------------------------|
C#|-11--11--11--11--11--11--11--11--11--11--11--11--11--11--x-x-x-x-|

"You were the holiest one"
F#|------------------------------------------------------------------------------------------------|
C#|------------------------------------------------------------------------------------------------|
G#|-6--6--6--6--6--6--6--6--6----------------------------------------------------------------------| x 2
C#|----------------------------8--8--8--8--8--8--8--8--6--6----6--6--6----6--5--5----5--5--5----5--|

F#|-------------------------------------------------|
C#|-------------------------------------------------|
G#|-------------------------------------------------|
C#|-6--6--6--6--6--6--6--6--8--8--8--8--8--8--8--8--|

F#|----------------------------------------------------------------------------|
C#|----------------------------------------------------------------------------|
G#|-6--6----6--5--5----5--3--3----3--1--1----1-----------------1~--------------|
C#|---------------------------------------------3~-----------------------------|

-break-

come in at "kiss me goodbye"
F#|---------------------------------------------|
C#|-8--6--5--3~--------------1------------------|
G#|-----------------------------1~--------------|
C#|---------------------------------------------|

Chorus

Outro
F#|----------------------------------------------------------------------------------------|
C#|----------------------------------------------------------------------------------------|
G#|-----------6~------5--3~--------1~------3/8--6~--------------------------------4~-------|
C#|-6~-------------------------------------------------------------------------------------|


12. PALM READER

Intro
F#|-----------------------------------------------------------------------------|
C#|-----------------------------------------------------------------------------|
G#|-0~---------------------------------0~-----------------------------------12\-|
C#|-----------------------------------------------------------------------------|

Main Riff x 2
F#|-----------------------------------------------------------------|
C#|-----------------------------------------------------------------|
G#|-0-0-0-0-0-0-0-0-3-3-3-3-----------------------------------------| 
C#|-------------------------2-2-2-2-3-3-3-3-3-3-3-3-3-3-3-3-5-5-5-5-|

Verse I
F#|--------------------------------------------|
C#|--------------------------------------------|
G#|-0----0-2-3----3----------------------------| x 4
C#|-----------------2----2-3----3-3-3----5--5-/|

Pre-Chorus
F#|-----------------------------------------------------------------|
C#|-----------------------------------------------------------------|
G#|-----------------------------------------------------------------|
C#|-3-3-3-3-3-3-3-3-3-3-3-3-3-3-3-3-2-2-2-2-2-2-2-2-5-5-5-5-5-5-5-5-|

Chorus
F#|------------------------------------------------------------------------------------------------------------|
C#|---------------------------------------------------------------------------------------------2-0-----0------|
G#|-3--3--3-3-3-3-3--3--3--3--3--3--3-3-3-3-3--3--3--3----------------------------------------------3-2---3-2-0|
C#|-----------------------------------------------------2--2--2-2-2-2-2--2--2--2--2--2--2-2-2-2----------------|

F#|------------------------------------------------------------------------------------------------------------|
C#|------------------------------------------------------------------------------------------------------------|
G#|---------------------------0--0--0-0-0-0-0--0--0--0---------------------------------------------------------|
C#|-3--3--3-3-3-3-3--3--3--3----------------------------5--5--5-5-5-5-5--5--5-5-5-5-5--5--5-5-5-5-5--5--5-5-5-5|

Main Riff x 2

Verse II
F#|--------------------------------------------|
C#|--------------------------------------------|
G#|-0----0-2-3----3----------------------------| x 2
C#|-----------------2----2-3----3-3-3----5--5-/|

F#|---------------------------------------------------------------|
C#|---------------------------------------------------------------|
G#|-0-0-0-0-0-0-0-0-3-3-3-3---------------------------------------| x 2
C#|-------------------------2-2-2-2-3-3-3-3-3-3-3-3-3-3-3-3-5--5--|

Pre-Chorus

Chorus

Bridge
F#|---------------------------------------------------------------------------------|
C#|---------------------------------------------------------------------------------|
G#|-----------------------------------------------------------------0-0-0-0-0-0-0-0-|
C#|-3-3-3-3-3-3-3-3-3-3-3-3-3-3-3-3-5-5-5-5-5-5-5-5-2-2-2-2-2-2-2-2-----------------|

F#|-------------------------------------------------------------------2--5-----|
C#|----------------------------------------------------------------2-----------|
G#|----3--3--3--------------------------------------------------0--------------|
C#|-------------3--3--3--3--3--3--3--3--5--5--5--5--2--2--2--2-----------------|

F#|-------------------------------------------------------------5--4--2--------|
C#|----------------------------------------------------------------------2-----|
G#|----3--3--3-----------------------------------------------------------------|
C#|-------------3--3--3--3--3--3--3--3--5--5--5--5--2--2--2--2-----------------|

F#|------------------------------------------------------------------2--5---------|
C#|---------------------------------------------------------------2---------------|
G#|----3-------------------------------------------------------0-------------3----|
C#|---------3--3--3--3--3--3--3--3--3--5--5--5--5--2--2--2--2---------------------|

Chorus x 2

End with:
F#|---------------------------------------------------------------------------|
C#|---------------------------------------------------------------------------|
G#|-0~------------------------------------------------------------------------|
C#|---------------------------------------------------------------------------|


13. NO CLOSER TO HEAVEN 

[NO BASS]

happy playing!!!!!!!
Добавлено: 16.02.2016
Другие материалы по этой песне:
  • Аккорды и текст

Страница создана 16.02.2016
http://primanota.ru/the-wonder-years/no-closer-to-heaven-album-chords.htm
Привет, Гость.
Предлагаем пройти революционный курс по гитаре.
Подарок от PrimaNota.Ru, забирай!