PrimaNota.ru - самый крупный в мире бесплатный архив песенных текстов, аккордов, табулатур и нот


The Wonder Years - My Life As A Pigeon - бас-таба, видео

Регистрация Запомнить меня
Войти через:  Facebook Google Twitter Vk Yandex Mail.ru

The Wonder Years - My Life As A Pigeon - бас-таба, видео

Печатать
Просмотров: 94
Уроки эстрадного вокала в Санкт-Петербурге
the wonder years - my life as a pigeon

Tabbed by: ashy (XxThreeCheersxX)
E-mail: burdickash@gmail.com

Tuning: Drop C#

I struggled quite a bit with tabbing this one out, but I'm fairly confident this is close to accurate.
if you have any suggestions or corrections, please leave a comment or email me.

Intro
F#|-------------------|
C#|-------------------|
G#|-2-4---------------|
C#|-------------------|

Main Riff
F#|--------------------------------------------------------------|
C#|-----------------------------------------------------------2--|
G#|-4-4-4-4-0-0-0-0-2-2-2-2-------4-4-4-4-0-0-0-0-2-2-2-2-2-2----| 
C#|--------------------------2-4---------------------------------|

F#|-----------------------------------------------------------6-4-|
C#|---------------------------------------------------------------|
G#|-4-4-4-4-0-0-0-0-2-2-2-2-------4-4-4-4-0-0-0-0-2-2-2-2-2-4-----|
C#|--------------------------2-4----------------------------------|

Verse I
F#|--------------------------------------------------------------|
C#|-----------------------------------------------------------2--|
G#|-4-4-4-4-0-0-0-0-2-2-2-2-------4-4-4-4-0-0-0-0-2-2-2-2-2-2----|
C#|--------------------------2-4---------------------------------| 

F#|--------------------------------------------------------6-4--|
C#|-------------------------------------------------------------|
G#|-4-4-4-4-0-0-0-0-2-2-2-2-------4-4-4-4-0-0-0-0-2----4-2------|
C#|--------------------------2-4--------------------------------|

Main Riff

Verse II
F#|--------------------------------------------------------------|
C#|-----------------------------------------------------------2--|
G#|-4-4-4-4-0-0-0-0-2-2-2-2-------4-4-4-4-0-0-0-0-2-2-2-2-2-2----|
C#|--------------------------2-4---------------------------------| 

F#|-------------------------------------------------------------|
C#|-------------------------------------------------------------|
G#|-4-4-4-4-0-0-0-0-2-2-2-2-------4-4-4-4-0-0-0-0-2x------------|
C#|--------------------------2-4--------------------------------|

Pre-Chorus
F#|------------------------------------------------------|
C#|------------------------------------------------------|
G#|-4-4----0-0----2~--------4-4----0-0-------------------|
C#|---------------------------------------4~--------16\--|

Chorus
F#|---------------------------------------------------------|
C#|---------------------------------------------------------|
G#|--------2-2----0~------2-2-----------2-2----0~-----------|
C#|-2-2--------------------------2-2-----------------4-4----|

F#|--------------------------------------------------------------|
C#|--------------------------------------------------------------|
G#|--------2-2----0~------2-2----4-4-4-4-4-4-0-0-0-0-0-0-2-2-2-2-|
C#|-2-2----------------------------------------------------------|

Post-Chorus
F#|--------------------------------------------------------------|
C#|-----------------------------------------------------------2--|
G#|-4-4-4-4-0-0-0-0-2-2-2-2-------4-4-4-4-0-0-0-0-2-2-2-2-2-2----| 
C#|--------------------------2-4---------------------------------|

Verse III
F#|---------------------------------------------------------------------|
C#|---------------------------------------------------------------------|
G#|-4--4--4--0--0--0--2----------------4--4--4--0--0--0--2--------------|
C#|----------------------------2--4-------------------------------------|

F#|--------------------------------------------------------------6-4-2---|
C#|--------------------------------------------------------------------2-|
G#|-4--4--4--0--0--0--2----------------4--4--4--0--0--0--2~--------------|
C#|----------------------------2--4--------------------------------------|

Pre-Chorus II
F#|-----------------------------------------------------------------|
C#|-----------------------------------------------------------------|
G#|-4-4-4-4-0-0-0-0-2-2-2-2-2-2-2-2-4-4-4-4-0-0-0-0-----------------|
C#|-------------------------------------------------4-4-4-4-4-4-4-4-|

F#|----------------------------------------------------------------------------------------------|
C#|-----------------------------------------2-2-----4-4-4-4-4-4-4-4-4-4--------------------------|
G#|-4-4-4-4-0-0-0-0-2-2-2-2-2-2-2-2-4-4----------------------------------------0-0----2~---------|
C#|---------------------------------------------------------------------2-2----------------------|

Chorus x 2

Bridge
F#|---------------------------------|
C#|---------------------------------|
G#|---------------------------------| x 6
C#|-6-6-6-6-7-7-7-7-9-9-9-9-9-9-9-9-|

Final Chorus

Chorus
F#|--------------------------------------------------------------|
C#|--------------------------------------------------------------|
G#|--------2-2----0~------2-2----4-4-4-4-4-4-0-0-0-0-0-0-2-2-2-2-|
C#|-2-2----------------------------------------------------------|

F#|---------------------------------------------------------|
C#|---------------------------------------------------------|
G#|--------2-2----0~------2-2-----------2-2----0~-----------|
C#|-2-2--------------------------2-2-----------------4-4----|

F#|--------------------------------------------------------------|
C#|--------------------------------------------------------------|
G#|--------2-2----0~------2-2----4-4-4-4-4-4-0-0-0-0-0-0-2-2-2-2-|
C#|-2-2----------------------------------------------------------|

Outro
F#|---------------------------------|
C#|---------------------------------|
G#|-4-4-4-4-0-0-0-0-2-2-2-2-2-2-2-2-| x 3
C#|---------------------------------|

F#|---------|
C#|---------|
G#|-4-4x----|
C#|---------|

Happy playing!

| /  slide up
| \  slide down
| h  hammer-on
| p  pull-off
| ~  vibrato
| +  harmonic
| x  Mute note
===============================================================================
Добавлено: 13.03.2016
Другие материалы по этой песне:
  • Аккорды и текст

Страница создана 13.03.2016
http://primanota.ru/the-wonder-years/my-life-as-a-pigeon-chords.htm
Привет, Гость.
Предлагаем пройти революционный курс по гитаре.
Подарок от PrimaNota.Ru, забирай!