PrimaNota.ru - самый крупный в мире бесплатный архив песенных текстов, аккордов, табулатур и нот


The Wonder Years - Lets Moshercise - таба, видео

Регистрация Запомнить меня
Войти через:  Facebook Google Twitter Vk Yandex Mail.ru

The Wonder Years - Lets Moshercise - таба, видео

Печатать
Просмотров: 102
-------------------------------------------------------------------------------
		    Let's Moshercise!!! - The Wonder Years
-------------------------------------------------------------------------------
Tabbed by: JjjDdd
Email: jxsxphdxxgxn@gmail.com

Tuning: Drop C#

 *   palm mute
 h   hammer-on
 p   pull-off
 ~   vibrato
 +   harmonic
 x   mute note

this tab is mostly for the rhythm guitar

	Intro
D#|---------------------------------------------------------------------------|
A#|---------------------------------------------------------------------------|
F#|-11~------------------------------12~--------------------------------------|
C#|-12~------------------------------12~--------------------------------------| x4
G#|-9~-------------------------------10~--------------------------------------|
C#|---------------------------------------------------------------------------|

D#|--------------------------------------------------------------------------------|
A#|--------------------------------------------------------------------------------|
F#|------------11-11-11------------9--11-9-------------7--7--7-------------9--11-7-|
C#|--------------------------------------------------------------------------------|
G#|-0-0---0-0--9--9--9--5-5---5-5--7--9--7--0-0---0-0--5--5--5--5-5---5-5--7--9--5-|
C#|-0-0---0-0-----------5-5---5-5-----------0-0---0-0-----------5-5---5-5----------|
    * *   * *           * *   * *           * *   * *           * *   * *

D#|---------------------------------------------------------------------------|
A#|---------------------------------------------------------------------------|
F#|---------------------------------------------------------------------------|
C#|-----------------------------------------------------------5--4------------| x4
G#|-0-0---0-0---0-0---0-0---5p4p2h4---5-5---5-5---5-5---5-5---5--4------------|
C#|-0-0---0-0---0-0---0-0---5p4p2h4---5-5---5-5---5-5---5-5---5--4------------|
    * *   * *   * *   * *             * *   * *   * *   * *

	Verse
D#|---------------------------------------------------------------------------|
A#|---------------------------------------------------------------------------|
F#|---------------------------------------------------------------------------|
C#|---------------------------------------------------------------[pickslide]-| 
G#|---0---0----------5---5----------0---0----------5---5----------[pickslide]-|
C#|---0---0----------5---5----------0---0----------5---5----------[pickslide]-|


D#|----------------------------------------------|
A#|----------------------------------------------|
F#|----------------------------------------------|
C#|--2------0------2-----------------------------|
G#|--2-x8---0-x8---2-x8-------5-5-5-5-5-5-5-5----|
C#|--2------0------2----------5-5-5-5-5-5-5-5----|
                              * * * * * * * *
	Chorus	
D#|-------------------------------|    D#|-------------------------------| 
A#|-------------------------------|    A#|-------------------------------| 
F#|-------------------------------|    F#|-------------------------------| 
C#|-------------------------------|    C#|-------------------------------| 
G#|--0-0---0-0---9-9-9-9-7-7-7-7--| x3 G#|--5-5---5-5---5-5---5-5--5--4--| 
C#|--0-0---0-0---9-9-9-9-7-7-7-7--|    C#|--5-5---5-5---5-5---5-5--5--4--| 
     * *   * *                              * *   * *   * *   * *  *  *

D#|---------------------------------------------------------------------------|
A#|---------------------------------------------------------------------------|
F#|---------------------------------------------------------------------------|
C#|-----------------------------------------------------------5--4------------| x2
G#|-0-0---0-0---0-0---0-0---5p4p2h4---5-5---5-5---5-5---5-5---5--4------------|
C#|-0-0---0-0---0-0---0-0---5p4p2h4---5-5---5-5---5-5---5-5---5--4------------|
    * *   * *   * *   * *             * *   * *   * *   * *

	Verse
D#|-------------------------------------------------------------|
A#|-------------------------------------------------------------|
F#|-------------------------------------------------------------|
C#|-------------------------------------------------------------| 
G#|---0---0----------5---5----------0---0----------5---5--------|
C#|---0---0----------5---5----------0---0----------5---5--------|


D#|------------------------------------------------|
A#|------------------------------------------------|
F#|------------------------------------------------|
C#|--2------0------2-------------------------------|
G#|--2-x8---0-x8---2-x8-------5-5-5-5-5-5--5--5----|
C#|--2------0------2----------5-5-5-5-5-5--5--5----|
                              * * * * * * 
	Chorus
D#|-------------------------------|    D#|-------------------------------| 
A#|-------------------------------|    A#|-------------------------------| 
F#|-------------------------------|    F#|-------------------------------| 
C#|-------------------------------|    C#|-------------------------------| 
G#|--0-0---0-0---9-9-9-9-7-7-7-7--| x3 G#|--5-5---5-5---5-5---5-5--5--4--| 
C#|--0-0---0-0---9-9-9-9-7-7-7-7--|    C#|--5-5---5-5---5-5---5-5--5--4--| 
     * *   * *                              * *   * *   * *   * *

	Breakdown
D#|----------------------------------------------|
A#|--------------------------0~------------------|
F#|--------------------------14~-----------------|
C#|--0~---------9-9-9---xx-----------7-----7-----|
G#|--0~---------9-9-9---xx---12~-----7-----7-----|
C#|--0~---------9-9-9---xx-----------7-----7-----|


D#|---------------------------------------------------------------------------|
A#|---------------------------------------------------------------------------|
F#|---------------------------------------------------------------------------|
C#|---------------------------------------------------------------------------| 
G#|--0-0-0-0-0-0-0-0-0-0-0-0-2-2-4-4-5-5-5-5-5-5-5-5-5-5-5-5-5-5-4-4-2-2-0-0--|
C#|--0-0-0-0-0-0-0-0-0-0-0-0-2-2-4-4-5-5-5-5-5-5-5-5-5-5-5-5-5-5-4-4-2-2-0-0--|
     * * * * * * * * * * * * * * * * * * * * * * * * * * * * * * * * * * * *

D#|---------------------------------------------------------------------------|
A#|---------------------------------------------------------------------------|
F#|---------------------------------------------------------------------------|
C#|---------------------------------------------------------------------------|
G#|--0-0-0-0-0-0-0-0-0-0-0-0-2-2-4-4-5~---------------------------------------|
C#|--0-0-0-0-0-0-0-0-0-0-0-0-2-2-4-4-5~---------------------------------------|
     * * * * * * * * * * * * * * * *

D#|---------------------------------------------------------------------------|
A#|---------------------------------------------------------------------------|
F#|---------------------------------------------------------------------------|
C#|-----------------------------------------------------------5--4------------| x2
G#|-0-0---0-0---0-0---0-0---5p4p2h4---5-5---5-5---5-5---5-5---5--4------------|
C#|-0-0---0-0---0-0---0-0---5p4p2h4---5-5---5-5---5-5---5-5---5--4------------|
    * *   * *   * *   * *             * *   * *   * *   * *

D#|--------------------------------------------------------------------|
A#|--------------------------------------------------------------------|
F#|---------------------------------------------------111111119-9-9-9--|
C#|--------------------------------------------------------------------|
G#|-0-0-0-0-0-0-0-0-9-9-9-9-7-7-7-7---0-0-0-0-0-0-0-0-9-9-9-9-7-7-7-7--|
C#|-0-0-0-0-0-0-0-0-9-9-9-9-7-7-7-7---0-0-0-0-0-0-0-0------------------|
    * * * * * * * *                   * * * * * * * * 
D#|------------------------------------------------------------------------|
A#|------------------------------------------------------------------------|
F#|------------------------------------------------------------------------|
C#|--------------------------------------------------------------5--4--0---|
G#|-0-0-0-0-0-0-0-0-9-9-9-9-7-7-7-7------5-5---5-5---5-5---5-5---5--4--0---|
C#|-0-0-0-0-0-0-0-0-9-9-9-9-7-7-7-7------5-5---5-5---5-5---5-5---5--4--0---|
    * * * * * * * *                      * *   * *   * *   * * 

************************************
Добавлено: 07.05.2012
Другие материалы по этой песне:
  • Аккорды и текст

Страница создана 07.05.2012
http://primanota.ru/the-wonder-years/lets-moshercise-chords.htm
Привет, Гость.
Предлагаем пройти революционный курс по гитаре.
Подарок от PrimaNota.Ru, забирай!