PrimaNota.ru - самый крупный в мире бесплатный архив песенных текстов, аккордов, табулатур и нот


The Wonder Years - The Greatest Generation (album) - бас-таба, видео

Регистрация Запомнить меня
Войти через:  Facebook Google Twitter Vk Yandex Mail.ru

The Wonder Years - The Greatest Generation (album) - бас-таба, видео

Печатать
Просмотров: 88
Уроки эстрадного вокала в Санкт-Петербурге
THE WONDER YEARS - THE GREATEST GENERATION

Tabbed by: Ashy (XxThreeCheersxX)
E-mail: burdickash@gmail.com

Tuning: Drop C#

Note: some of these songs were tabbed within the last week; others were tabbed over a year ago.
If any of these are inaccurate, please let me know and I'll gladly look at them again and see what I can do.
(it's probably pretty easy to guess which ones are new and which ones are old)
All of these songs are also posted individually on this site.
Happy playing!

TRACKLIST:
1. THERE, THERE
2. PASSING THROUGH A SCREEN DOOR
3. WE COULD DIE LIKE THIS
4. DISMANTLING SUMMER
5. THE BASTARDS, THE VULTURES, THE WOLVES
6. THE DEVIL IN MY BLOODSTREAM
7. TEENAGE PARENTS
8. CHASER
9. AN AMERICAN RELIGION (FSF)
10. A RAINDANCE IN TRAFFIC
11. MADELYN
12. CUL-DE-SAC
13. I JUST WANT TO SELL OUT MY FUNERAL



1. THERE, THERE


Verse I (no bass)

Chorus
F#|-------------------------------------------------------|
C#|-------------------------------------------------------|
G#|-----------------------------------------------4-7-----| x 2
C#|--4-4-4-7--7-\0--0--2-2-2-2--4-4-4-7--7-\0--0------9-7-|

Verse II 
F#|---------------------------------------------7~--------7~--------7~--------7-6-6-4-2-|
C#|-----7~--------7~--------7~--------7~------7---------7---------7---------7-----------|
G#|---7---------7---------7---------7-------5---------5---------5---------5-------------|
C#|-7---------7---------7---------7-----------------------------------------------------|

F#|---------------------------------------------7~------------------7~-----------|
C#|-----7~--------7~--------7~--------7~-------------------------------------12\-|
G#|---7---------7---------7---------7-------5~------------------5~---------------|
C#|-7---------7---------7---------7----------------------------------------------|

Chorus

Bridge
F#|---------------------------------------------------------------6-4-2--|
C#|----------------------------------------------------------------------|
G#|---------------------------------------5-5-5-5-5-5-5-5-5-5-5-5--------| x 2
C#|-7-7-7-7-7-7-7-7-7-7-7-7-7-7-7-7-7-0-0--------------------------------|

Chorus 



2. PASSING THROUGH A SCREEN DOOR

Intro (no bass)

Verse (listen closely for a better sense of rhythm)
F#|----------------------------------------------------------------------------------------|
C#|--------------------------------------------------------7--7-6-4------------------------|
G#|----------------------------------------------------------------7-4--4-4--2--2--2-2-2-2-| x 2
C#|-2--2-2--2--2--2-2-2-2-6--6-6--6--6--6-6-6-6-7--7-7--7----------------------------------|

Pre-Chorus
F#|-----------------------------------------------------------------|
C#|-----------------------------------------------------------------|
G#|-0-0-0-0-0-0-0-0-2-2-2-2-2-2-2-2---------------------------------|
C#|---------------------------------4-4-4-4-4-4-4-4-4-4-4-4-4-4-4-4-|

F#|-----------------------------------------------------------------|
C#|-----------------------------------------------------------------|
G#|-0-0-0-0-0-0-0-0-2-2-2-2-2-2-2-2-3-3-3-3-3-3-3-3-3-3-3-3-3-------|
C#|-----------------------------------------------------------------|

Chorus
F#|-----------------------------------------------------------------|
C#|-----------------------------------------------------------------|
G#|-4-4-4-4-4-4-4-4-2-2-2-2-2-2-2-2-0-0-0-0-0-0-0-0-----------------| 
C#|-------------------------------------------------2-2-2-2-2-2-2-2-|

F#|-----------------------------------------------------------------|
C#|-----------------------------------------------------------------|
G#|-4-4-4-4-4-4-4-4-2-2-2-2-2-2-2-2-0-0-0-0-0-0-0-0-0-0-0-0-0-2-----| 
C#|-----------------------------------------------------------------|

F#|---------------------------------------------------------------------------------------------------------|
C#|---------------------------------------------------------------------------------------------------------|
G#|-4--4--4--4--2--2--2--2--0--0--0--0--------------4--4--4--4--2--2--2--2--0-0-0-0-0-0-0-0-0-0-0-0-0-0-0-0-|
C#|-------------------------------------2--2--2--2----------------------------------------------------------|

Interlude 
F#|----------------------------------------------------------------------------------------|
C#|------------2--2-0----------------6--6-4----------------7--7-6-4------------------------|
G#|-------------------2-0-------------------6-4---------------------7-4--4-4-2--2--2-2-2-2-|
C#|-2--2-2--2-------------6--6-6--6-------------7--7-7--7----------------------------------|

Verse x 2

Pre-Chorus II 
F#|-----------------------------------------------------------------|
C#|-----------------------------------------------------------------|
G#|-----------------------------------------------------------------|
C#|-4--4--4~--------6--6--6~--------7--7--7~--------9-9-9-9-9-9-9-9-|

F#|---------------------------------------------------------------------------|
C#|---------------------------------------------------------------------------|
G#|---------------------------------------------------------------------------|
C#|-4--4--4~--------6--6--6~--------7--7--7~--------10-10-10-10-10-10-\\\-----|

Chorus 

"I was kinda hoping you'd stay"
F#|-------------------------------------------------------------------------|
C#|-------------------------------------------------------------------------|
G#|-------------------------------------------------------------------------|
C#|-6--6--6--6--7--7--7--7--9--9--9--9--9--9--9--9--6--6--6--6--7--7--7--7--|

Bridge (come at "you wouldn't understand")
F#|------------------------------------------------|
C#|------------------------------------------------|
G#|------------------------------------------------|
C#|-6--6--6--6--6--6--6--6--7--7--7--7--7--7--14\--|

"well jesus christ"
F#|------------------------------------------------------------------------------------------------|
C#|------------------------------------------------------------------------------------------------|
G#|------------------------0--0--0--0--0--0--0-2---4--4--4--4--4--4--4--4--0--0--0--0--0--0--0--0--| x 2
C#|-2--2--2--2--2--2--2--2-------------------------------------------------------------------------|

F#|------------------------------------------|
C#|------------------------------------------|
G#|-4~----------------2~----------------14\--|
C#|------------------------------------------|

Final Chorus
F#|-----------------------------------------------------------------|
C#|-----------------------------------------------------------------|
G#|-4-4-4-4-4-4-4-4-2-2-2-2-2-2-2-2-0-0-0-0-0-0-0-0-----------------| 
C#|-------------------------------------------------2-2-2-2-2-2-2-2-|

F#|-----------------------------------------------------------------|
C#|-----------------------------------------------------------------|
G#|-4-4-4-4-4-4-4-4-2-2-2-2-2-2-2-2-0-0-0-0-0-0-0-0-0-0-0-0-0-2-----| 
C#|-----------------------------------------------------------------|

F#|---------------------------------------------------------------------------------------------------------|
C#|---------------------------------------------------------------------------------------------------------|
G#|-4--4--4--4--2--2--2--2--0--0--0--0--------------4--4--4--4--2--2--2--2--0-0-0-0-0-0-0-0-0-0-0-0-0-0-0-0-|
C#|-------------------------------------2--2--2--2----------------------------------------------------------|

"I was kinda hoping you'd stay"
F#|-------------------------------------------------|
C#|-------------------------------------------------|
G#|-------------------------------------------------| x 2
C#|-6--6--6--6--7--7--7--7--9--9--9--9--9--9--9--9--|

F#|-------------------------------------------------|
C#|-------------------------------------------------|
G#|-------------------------------------------------|
C#|-6--6--6--6--7--7--7--7--------------------------|



3. WE COULD DIE LIKE THIS

Intro/Chorus x 2
F#|----------------------------------|
C#|----------------------------------|
G#|----------------------------------| 
C#|-33-333-333-333-377-7775--55-5555-|

Verse I (come in at 0:25)
F#|---------------------------------------------------------|
C#|---------------------------------------------------------|
G#|-3-3-3/7-7-7-7-7-7-7-7-7-7-7-7-7-3-3-3/7-7-7-7-7-7-7-7-7-|
C#|---------------------------------------------------------|

"And the whole world smells like true blue"
F#|-----------------------------------------------------------------|
C#|-----------------------------------------------------------------|
G#|-3-3-3/7-7-7-7-7-7-7-7-7-7-7-7-7-3-3-3/7-7-7-7-7-7-7-7-7-7-7-7-8-|
C#|-----------------------------------------------------------------|

F#|-----------------------------------------------------------------|
C#|-----------------------------------------------------------------|
G#|-----------------------------------------------------------------|
C#|-7-7-7-7-7-7-7-7-7-7-7-7-7-7-7-7-5-5-5-5-5-5-5-5-5-5-5-5-5-5-5x--|

Pre-Chorus
F#|----------------------------------------------------------|
C#|----------------------------------------------------------|
G#|----------------------------------------------------------|
C#|-3-333-3333x----0-000-0000x----3-333-3333x----0-000-0000x-|

Intro/Chorus x 4

Verse II
F#|-----------------------------------------------------------------|
C#|-----------------------------------------------------------------|
G#|-3-3-3---------------------------3-3-3---------------------------|
C#|-------2-2-2-2-2-2-2-2-2-2-2-2-2-------2-2-2-2-2-2-2-2-2-2-2-2-2-|

F#|---------------------------------------------------------|
C#|---------------------------------------------------------|
G#|-3-3-3/7-7-7-7-7-7-7-7-7-7-7-7-7-3-3-3/7-7-7-7-7-7-7-7-7-|
C#|---------------------------------------------------------|

F#|-----------------------------------------------------------------|
C#|-----------------------------------------------------------------|
G#|-3-3-3/7-7-7-7-7-7-7-7-7-7-7-7-7-3-3-3/7-7-7-7-7-7-7-7-7-7-7-7-8-|
C#|-----------------------------------------------------------------|

F#|-----------------------------------------------------------------|
C#|-----------------------------------------------------------------|
G#|-----------------------------------------------------------------|
C#|-7-7-7-7-7-7-7-7-7-7-7-7-7-7-7-7-5-5-5-5-5-5-5-5-5-5-5-5-5-5-5x--|

Pre-Chorus II
F#|---------------------------------------------------------------|
C#|---------------------------------------------------------------|
G#|---------------------------------------------------------------|
C#|-3-333-3333x----0-000-0000x----3-333-3333x----0-000-0000000-12\|

Intro/Chorus x 4

Bridge (listen closely for the rhythm it's a bit weird right here; alternatively, you could just play 
eighth notes straight through, it will still sound good) 
F#|----------------------------------------------------------------|
C#|----------------------------------------------------------------|
G#|----------------------------------------------------------------| x 2
C#|-33-333-333-333-300-000-000-022-23--33-333-333-377-7775--555555-|
                                        
Final Chorus
F#|-----------------|
C#|-----------------|
G#|-----------------|
C#|-7777-75--555555-|

F#|----------------------------------|
C#|----------------------------------|
G#|----------------------------------| x 2
C#|-33-333-333-333-377-7775--55-5555-|

Outro
F#|---------------------------------|
C#|---------------------------------|
G#|-3-3-3-3-------------------------| x 2
C#|---------3-3-3-3-3-3-3-3-3-3-3-3-|

F#|-----------------------------------------------------|
C#|-----------------------------------------------------|
G#|-3-3-3-3---------------------------------------------|
C#|---------3-3-3-3-3x--3x--3x--3x--7777775--555555-12\-|

F#|----------------------------------------------------------------------------------|
C#|----------------------------------------------------------------------------------|
G#|-3-3-3-3-------3-3-3-3------3-3-3-3-----------------------------------------------|
C#|---------3x------------3x-----------3x--3x--3x--3x--3x--7777775--5555553~---------|



4. DISMANTLING SUMMER


Intro
F#|--------|
C#---------|
G#|--------| 
C#|-14\----|

Main Riff
F#|---------------------------------|
C#|---------------------------------|
G#|---------2-2-2-2-0-0-0-0-0-0-0-0-| x 4
C#|-2-2-2-2-------------------------|

Verse I (come in after "I hope they let me in")
F#|--------------------------------|
C#|--------------------------------|
G#|-----------------0-0-0-0-0-0-2--|
C#|-4-4-4-4-4-4-4-4----------------|

F#|-9~--------------------9-11-8-9~--------------------9-11-13-|
C#|-------9~----7~---------------------9~----7~----------------|
G#|------------------------------------------------------------|
C#|------------------------------------------------------------|

F#|-9~--------------------9-11-8-9~----8~----9~------------|
C#|-------9~----7~-----------------------------------------|
G#|--------------------------------------------------------|
C#|---------------------------------------------------14\--|

Pre-Chorus (the riff is played faster)
F#|-------------------------2-4-2--------------------------------------------------------------------------|
C#|-------------------------------4-2-4-2------------------------------------------------------------------|
G#|-0-0-0-0-0-0-0-0-2-2-2-2---------------4-----------------0-0-0-0-0-0-0-0-----------------0-0-0-0-0-0-2--|
C#|-----------------------------------------2-2-2-2-2-2-2-2-----------------4-4-4-4-4-4-4-4----------------|

Chorus 
F#|--------------------------------------------------------------------|
C#|--------------------------------------------------------------------|
G#|-------------------0-0-0-0-0-0-0-2--4-4-4-4-4-4-4-4-2-2-2-2-2-2-2-2-|
C#|-4-4-4-4-4-4-4-4-4--------------------------------------------------|

(listen for better timing)
F#|-----------------------------------------------------|
C#|---------------------------2-2-2-2-2-----------------|
G#|--------------0-0-0-0-0-----------------2-2-2-2-2----|
C#|-4-4-4-4-4-------------------------------------------|

F#|--------------------------------------------------------------------------|
C#|--------------------------------------------------------------------------|
G#|--------------0--0--0--0--2--2--2--2--2--2--2--2--------------0--0--0--0--|
C#|-4-4-4-4-4----------------------------------------4--4--4--4--------------|

Main Riff x 2

Verse II
F#|-------------------------------------4---------------2-----------|
C#|---------------------------2-4-6-2-2---2-----4-----2-------2-4-6-|
G#|---------2-2-2-2-0-0-0-0-0---------------2-2---2-0-----0-0-------|
C#|-2-2-2-2---------------------------------------------------------|

F#|-------------------------------------4---------------------------------|
C#|---------------------------2-4-6-2-2---2-----4-------------------------|
G#|---------2-2-2-2-0-0-0-0-0---------------2-2---2-14-14-14-14-14-14-14\-|
C#|-2-2-2-2---------------------------------------------------------------|

Pre-Chorus II
F#|-------------------------2-4-2----------------------------------------------------------------------------|
C#|-------------------------------4-2-4-2--------------------------------------------------------------------|
G#|-0-0-0-0-0-0-0-0-2-2-2-2---------------4-----------------0-0-0-0-0-0-0-0-----------------0-0-0-0-0-0-12\--|
C#|-----------------------------------------2-2-2-2-2-2-2-2-----------------4-4-4-4-4-4-4-4------------------|

Chorus (same as before)

Bridge
F#|-----------------|
C#|-----------------|
G#|-----------------|
C#|-2-2-2-2-2-2-2-2-|

F#|------------------------------------------------------------|
C#|------------------------------------------------------------|
G#|---------------------2-2-2-2----2---------------------------| x 3
C#|-14\2-2-2-2----2-2-2--------------2-4-6-6-6-6----7-7-7-7----|

F#|---------------------------------|
C#|---------------------------------|
G#|---------------------------------|
C#|-6-6-6-6-6-6-6-6-7-7-7-7-7-7-7-7-|

Final Chorus
F#|--------------------------------------------------------------------|
C#|--------------------------------------------------------------------|
G#|-------------------0-0-0-0-0-0-0-2--4-4-4-4-4-4-4-4-2-2-2-2-2-2-2-2-|
C#|-4-4-4-4-4-4-4-4-4--------------------------------------------------|

(listen for better timing)
F#|-----------------------------------------------------|
C#|---------------------------2-2-2-2-2-----------------|
G#|--------------0-0-0-0-0-----------------2-2-2-2-2----|
C#|-4-4-4-4-4-------------------------------------------|

F#|--------------------------------------------------------------------------|
C#|--------------------------------------------------------------------------|
G#|--------------0--0--0--0--2--2--2--2--2--2--2--2--------------0--0--0--0--|
C#|-4-4-4-4-4----------------------------------------4--4--4--4--------------|

F#|------------------------------------------------------------------|
C#|------------------------------------------------------------------|
G#|-------------------0-0-0-0-0-0-00------------------0-0-0-0-0-0-00-|
C#|-2-2-2-2-2-2-2-2-2-----------------2-2-2-2-2-2-2-2----------------|

F#|-----------------------------------------------------|
C#|---------------------------2-2-2-2-2-----------------|
G#|--------------0-0-0-0-0-----------------2-2-2-2-2----|
C#|-4-4-4-4-4-------------------------------------------|

F#|----------------------------------------------------------------------------------|
C#|----------------------------------------------------------------------------------|
G#|--------------0--0--0--0--2--2--2--2--2--2--2--2--------------0-------------------|
C#|-4-4-4-4-4----------------------------------------4-----------------------2~------|



5. THE BASTARDS, THE VULTURES, THE WOLVES


Verse I
F#|---------------------------------------------------------------------|
C#|---------------------------------------------------------------------|
G#|---------------------------------------------------------------------| x 2
C#|-7777777777777777-2222222222222222-3333333333333333-5555555555555555-|

Pre-Chorus (no bass)

Chorus
F#|--------------------------------------------------------------------|
C#|--------------------------------------------------------------------|
G#|-3-3-3-3--------------------------3-3-3-3---------------------------|
C#|---------2-2-2-2-3-3-3-3-55555555---------2-2-2-2-3-3-3-3-5555-6666-|

F#|--------------------------------------------------------------------------------------|
C#|--------------------------------------------------------------------------------------|
G#|--------------------------------------------------------------------------------------|
C#|-77777777-1010101010101010-3333333333333333-77777777-1010101010101010-5-5-5-5-5-5-5-5-|

Post-Chorus
F#|-----------------------------------------------------------------|
C#|-----------------------------------------------------------------|
G#|-----------------------------------------------------------------|
C#|-77777x-7x-7x-7x-77777x-7x-7x-7x-22222x-2x-2x-2x-22222x-2x-2x-2x-|

F#|-----------------------------------------------------------------|
C#|-----------------------------------------------------------------|
G#|-----------------------------------------------------------------|
C#|-33333x-3x-3x-3x-33333x-3x-3x-3x-5-5-5-5-5-5-5-5-5-5-5-5-5-5-5-5-|

Verse II x 2
F#|-----------------------------------------------------------------|
C#|-----------------------------------------------------------------|
G#|-----------------------------------------------------------------|
C#|-7-7-7-7-7-7-7-7-7-7-7-7-7-7-7-7-2-2-2-2-2-2-2-2-2-2-2-2-2-2-2-2-|

F#|-------------------------------------------------------------|
C#|-------------------------------------------------------------|
G#|-------------------------------------------------------------|
C#|-3--3--3-3-3-3-3--3--3-3-3-3-5-5-5-5-5-5-5-5-5-5-5-5-5-5-5-5-|

Pre-Chorus II
F#|---------------------------------------------------------|
C#|---------------------------------------------------------|
G#|-----------------------5-7-5-3---------------------------|
C#|-2~----3~----5~----------------2~----3~----5~------------|

Chorus II
F#|--------------------------------------------------------------------|
C#|--------------------------------------------------------------------|
G#|-3-3-3-3--------------------------3-3-3-3---------------------------|
C#|---------2-2-2-2-3-3-3-3-55555555---------2-2-2-2-3-3-3-3-5555-6666-|

F#|--------------------------------------------------------------------------------------|
C#|--------------------------------------------------------------------------------------|
G#|--------------------------------------------------------------------------------------|
C#|-77777777-1010101010101010-3333333333333333-77777777-1010101010101010-5555555555555~--|

Bridge
F#|---------------------------------------------|
C#|---------------------------------------------|
G#|---------------------------------------------| x 2
C#|-7~--------3~--------7~----10~----5~--------/|

F#|-------------------------------------------------------------------------------------|
C#|-------------------------------------------------------------------------------------|
G#|-------------------------------------------------------------------------------------|
C#|-7-7-7-7-7-7-7-7-3-3-3-3-3-3-3-3-7-7-7-7-10-10-10-10-5-5-5-5-5-5-5-5-5-5-5-5-5-5-5-5-|

"I came here looking for a fight" 
F#|-------------------------------------------------------|
C#|-------------------------------------------------------|
G#|---------------------------------3-3-3-3-3-3-333-------|
C#|-3-3-3-3-3-3-333-5-5-5-5-5-5-555-----------------2x----|

F#|---------------------------------------------------------|
C#|---------------------------------------------------------|
G#|---------------------------------3-3-3-3-3-3-333---------| x 3
C#|-3-3-3-3-3-3-333-5-5-5-5-5-5-555-----------------2-2-2-2-|

Outro
F#|-------------------------------------------------------------|
C#|-------------------------------------------------------------|
G#|---------------------------------3-3-3-3-3-3-333-------------|
C#|-3-3-3-3-3-3-333-5-5-5-5-5-5-555-----------------2x----3~----|



6. THE DEVIL IN MY BLOODSTREAM


Verse I (no bass)

Pre-Chorus (after "Just a little bit of anything")
F#|---------------------------------------------|
C#|-------------5~--------------------7~--------|
G#|-------5~--------------------7~--------------|
C#|-5~--------------------7~--------------------|

Chorus ("Two blackbirds on a highway sign")
F#|-----------------------------------------------------------------------------------------|
C#|-----------7-5~-------------------------7-5-4-------------7-5~---------------------------|
G#|-5~------5------------------------------------7-5~------5--------------------------------|
C#|-----------------------9~------9--7~---------------------------------9~--------7~--------|

"I want to be strong.... but it's not easy anymore..."
F#|-------------------------------------------------------------------------------|
C#|-------------------------------------------------------------------------------|
G#|-----------------------------------------5~------------------------------------|
C#|-9~--------/12~--------5~--------------------------7~--------5~----------------|

Verse II
F#|------------------------------------------------------------------------------------------------------|
C#|-------7~----7-------7-----------4~------------4~---------------5-----------5-----------7--7~---------|
G#|-5~------------5~-------5--2~------------2~---------(2)------5-----------5-----------7-------------7--|
C#|--------------------------------------------------------5~----------5~----------7~--------------------|

F#|------------------------------------------------------------------------------------------------------|
C#|-------7~----7-------7-----------4~----2-------4~---------------5-----------5-----------7--7~---------|
G#|-5~------------5~-------5--2~------------2~---------(2)------5-----------5-----------7----------------|
C#|--------------------------------------------------------5~----------5~----------7~--------------------|

"I bet I'd be a fucking coward"
F#|-----------------------------------------------------------------|
C#|-----------------------------------------------------------------|
G#|-5-5-5-5-5-5-5-5-5-5-5-5-5-5-5-5---------------------------------|
C#|---------------------------------9-9-9-9-9-9-9-9-9-9-9-9-9-9-9-9-|

F#|-----------------------------------------------------------------|
C#|-----------------------------------------------------------------|
G#|-----------------------------------------------------------------|
C#|-5-5-5-5-5-5-5-5-5-5-5-5-5-5-5-5-7-7-7-7-7-7-7-7-7-7-7-7-7-7-7-7-|

"And I wanna know, can I please come home..." (if you don't have a 21st fret just ignore the slide)
F#|-----------------------------------------------------------------------------------------|
C#|-----------------------------------------------------------------------------------------|
G#|-----------------------------------------------------------------------------------------|
C#|-5-5-5-5-5-5-5-5-7-7-7-7-7-7-7-7-9~----/21~----7~--------5-5-5-5-5-5-5-5-5-5-5-5-5-5-5-5-|

F#|---------------------------------|
C#|---------------------------------|
G#|---------------------------------|
C#|-7-7-7-7-7-7-7-7-7-7-7-7-7-7-7-7-|

Chorus II
F#|-----------------------------------------------------------------|
C#|---------------------------------------------------------7-5-4---|
G#|-5-5-5-5-5-5-5-5-----------------------------------------------7-|
C#|-----------------5-5-5-5-5-5-5-5-9-9-9-9-9-9-9-9-7-7-7-7---------|

F#|-----------------------------------------------------------------|
C#|-----------------------------------------------------------------|
G#|-5-5-5-5-5-5-5-5-------------------------------------------------|
C#|-----------------5-5-5-5-5-5-5-5-9-9-9-9-9-9-9-9-7-7-7-7-7-7-7-7-|

F#|-----------------------------------------------------------------|
C#|-----------------------------------------------------------------|
G#|-----------------5-5-5-5-5-5-5-5---------------------------------|
C#|-9-9-9-9-9-9-9-9-----------------5-5-5-5-5-5-5-5-5-5-5-5-5-5-5-5-|

F#|-------------------------------------------------------------------|
C#|-------------------------------------------------------------------|
G#|-5-5-5-5-5-5-5-5-5-------------------------------------------------|
C#|-------------------7-7-7-7-7-7-7-7-5-5-5-5-5-5-5-5-5-5-5-5-5x--5x--|

"I know how it feels to be at war with a world that never loved me"
F#|-------------------------------------------------------------------|
C#|-------------------------------------------------------------------|
G#|-5-5-5-5-5-5-5-5-5-------------------------------------------------| x 2
C#|-------------------7-7-7-7-7-7-7-7-5-5-5-5-5-5-5-5-5-5-5-5-5-5-5-5-|

F#|-----------------------------------------------------------------|
C#|---------------------------------------------------------7-5-4---|
G#|-5-5-5-5-5-5-5-5-----------------------------------------------7-|
C#|-----------------5-5-5-5-5-5-5-5-9-9-9-9-9-9-9-9-7-7-7-7---------|

F#|-----------------------------------------------------------------|
C#|-----------------------------------------------------------------|
G#|-5-5-5-5-5-5-5-5-------------------------------------------------|
C#|-----------------5-5-5-5-5-5-5-5-9-9-9-9-9-9-9-9-7-7-7-7-7-7-7-7-|



7. TEENAGE PARENTS


Intro (note: those are 13's, and you slide down to a 1)
F#|--------------------------------------------------------------------------------|
C#|--------------------------------------------------------------------------------|
G#|--------------------------------------------------------------------------------|
C#|-8888-888-7777-777-6666-666/13131313-131313\1111-111-3333-333-5555-555-3333-333-|

Verse I
F#|------------------------------------------------------|
C#|------------------------------------------------------|
G#|------------------------------------------------------|
C#|-13h15p13~--------1111-111-3333-333-5555-555-3333-333-|

F#|--------------------------------------------------------------------------------|
C#|--------------------------------------------------------------------------------|
G#|--------------------------------------------------------------------------------|
C#|-8888-888-7777-777-6666-666-13131313131313\-1111-111-3333-333-5555-555-33333333-|

Pre-Chorus
F#|--------------------------------------------------------------------------|
C#|--------------------------------------------------------------------------|
G#|--------------------------------------------------------------------------|
C#|-11111111-333-55555-88888888-55555-333-1111111111111111-88888888-33333333-|

Chorus
F#|-----------------------------------------------------------------------------|
C#|-----------------------------------------------------------------------------|
G#|-----------------------------------------------------------------------------|
C#|-8~--------3~--------111-1-11-1-5555-33-88888888-33333333-111-1-11-1-5555-33-|

F#|--------------------------------------------------------------------|
C#|--------------------------------------------------------------------|
G#|--------------------------------------------------------------------|
C#|-5-5-5-5-6-6-6-6-1111111111111111-8888888888888888-3333333333333333-|

F#|-------------------------------------|
C#|-------------------------------------|
G#|-------------------------------------|
C#|-5~-------6~--------1111111111111111-|

Intro

Verse II
F#|---------------------------------------------------------------------------|
C#|---------------------------------------------------------------------------|
G#|---------------------------------------------------------------------------|
C#|-8888-888-7777-777-6666-666-1111-1-13\-1111-111-3333-333-5555-555-3333-333-|

F#|---------------------------------------------------------------------------|
C#|---------------------------------------------------------------------------|
G#|---------------------------------------------------------------------------|
C#|-8888-888-7777-777-6666-666-1111-1-13\-1111-111-3333-333-5555-555-33333333-|

Pre-Chorus II
F#|--------------------------------------------------------------------------|
C#|--------------------------------------------------------------------------|
G#|--------------------------------------------------------------------------|
C#|----1-111-333-55555-88888888-55555-333-1111111111111111-88888888-33333333-|

Chorus II
F#|---------------------------------------------------------------------------|
C#|---------------------------------------------------------------------------|
G#|---------------------------------------------------------------------------|
C#|-88888888-33333333-111-1-11-1-5555-33-88888888-33333333-111-1-11-1-5555-33-|

F#|-----------------------------------------------------------------|
C#|-----------------------------------------------------------------|
G#|-----------------------------------------------------------------| x 2
C#|-5-5-5-5-6-6-6-6-1-1-1-1-1-1-1-1-8-8-8-8-8-8-8-8-3-3-3-3-3-3-3-3-|

Bridge
F#|---------------------|
C#|---------------------|
G#|---------------------| x 2
C#|-1~--------5555555-3-|

F#|-----------------------------------------------|
C#|-----------------------------------------------|
G#|-----------------------------------------------| x 2
C#|-1x-1x-1x-1x-1x-1x-1x-1x-1x-1x-1x-1x-5555555-3-|

Final Chorus
F#|-----------|
C#|-----------|
G#|-----------|
C#|-1-5555-33-|

F#|---------------------------------------------------------------------------|
C#|---------------------------------------------------------------------------|
G#|---------------------------------------------------------------------------|
C#|-88888888-33333333-111-1-11-1-5555-33-88888888-33333333-111-1-11-1-5555-33-|

F#|--------------------------------------------------------------------|
C#|--------------------------------------------------------------------|
G#|--------------------------------------------------------------------|
C#|-5-5-5-5-6-6-6-6-1111111111111111-8888888888888888-3333333333333333-|

F#|--------------------------------------------|
C#|--------------------------------------------|
G#|--------------------------------------------|
C#|-5~-------6~--------1x-1x-1x-1x-1-55555-333-|


8. CHASER


Intro
F|-----------|
C|-----------|
G|-----------|
C|-x-x-x-x-x-|

F|------------------------------------------------------------------------------|
C|------------------------------------------------------------------------------|
G|------------------------------------------------------------------------------|
C|-0000-000-000000-3333-333-333333-8888-888-888888-10101010-101010-101010101010-|

F|------------------------------------------------------------------------------|
C|------------------------------------------------------------------------------|
G|------------------------------------------------------------------------------|
C|-0000-000-000000-3333-333-333333-8888-888-888888-10101010-101010--------------|

Verse I
F|------------------------------------------------------------------------|
C|------------------------------------------------------------------------|
G|------------------------------------------------------------------------| x 2
C|-0000-000x-------3333-333x-------8888-888x-------10101010-101010x-------|

Pre-Chorus (bit iffy on the fill, it's hard to hear, but it sounds good)
F|----------------------------------------------------------|
C|----------------------------------------------------------|
G|----------------------------------------------------------|
C|-8--8--8--8--8--8--8--8--10--10--10--10--12-10--10-8-10-8-|

F|--------------------------------------------------------|
C|--------------------------------------------------------|
G|--------------------------------------------------------|
C|-8--8--8--8--8--8--8--8-10--10--10--10--10--10--10--10--|

Chorus
F|-------------------------------------------------------------------------------------------------|
C|-------------------------------------------------------------------------------------------------|
G|-8--8--8--8--8--8--8--8----------------------------8--8--8--8--8--8--8--8------------------------|
C|-------------------------8--8--8--8--8--8--x-x-x-x-------------------------8--8--8--8--8--8--x-x-|

F|-------------------------------------------|
C|-------------------------------------------|
G|-8--8--8--8--8--8--8--8--55555555-33333333-|
C|-------------------------------------------|

Interlude
F|------------------------------------------------------------------------------|
C|------------------------------------------------------------------------------|
G|------------------------------------------------------------------------------|
C|-0000-000-000000-3333-333-333333-8888-888-888888-10101010-101010--------------|

Verse II
F|--------------------------------------------------------------------------|
C|--------------------------------------------------------------------------|
G|--------------------------------------------------------------------------| 
C|-0000-000x-------3333-333x-------8888-888x-------10101010-101010x---10-10-|

F|---------------------------------------------------------------------------|
C|---------------------------------------------------------------------------|
G|---------------------------------------------------------------------------|
C|-0000-000-00000000-3333-333-33333333-8888-888-88888888-10101010-101010-----|

Chorus II
F|-------------------------------------------------|
C|-------------------------------------------------|
G|-8--8--8--8--8--8--8--8--------------------------|
C|-------------------------8--8--8--8--8--8--x-x---|

F|-------------------------------------------------------------------------------------------------|
C|-------------------------------------------------------------------------------------------------|
G|-8--8--8--8--8--8--8--8----------------------------8--8--8--8--8--8--8--8------------------------|
C|-------------------------8--8--8--8--8--8--x-x-x-x-------------------------8--8--8--8--8--8--x-x-|

F|-------------------------------------------|
C|-------------------------------------------|
G|-8--8--8--8--8--8--8--8--55555555-33333333-|
C|-------------------------------------------|

Guitar Solo
F|-----------------------------------------------------------------------|
C|-----------------------------------------------------------------------|
G|-----------------------------------------------------55555555-33333333-| x 2
C|-33333333333333-77-8888888888888888-3333333333333333-------------------|

Bridge
F#|----------------------------------------------|
C#|----------------------------------------------|
G#|----------------------------------------------| x 2
C#|-3~--------8~-------/15~--------12~----10~----|

Chorus II

Outro
F#|----------------------------------------------------------------------|
C#|----------------------------------------------------------------------|
G#|----------------------------------------------------55555555-33333333-| x 2
C#|-3333333333333333-8888888888888888-3333333333333333-------------------|

End on:
F#|-------|
C#|-------|
G#|-------|
C#|-3~----|



9. AN AMERICAN RELIGION (FSF)


Intro
C#|-------------------------------------------------------|
C#|-------------------------------------------------------|
C#|-------------------------------------------------------|
C#|-5--5--/9--------5--5--/9--------5--5--/9--------5x----|

Verse
C#|--------------------------------------------------------------------------|
C#|--------------------------------------------------------------------------|
C#|--------------------------------------------------------------------------| x 2
C#|-99999999-55555555-00000000-44444444-99999999-55555555-00000000-44--4--4--|

Pre-Chorus
C#|----------------------------------------|
C#|----------------------------------------|
C#|----------------------------------------| x 2
C#|-5555555555555555555555555-4--4--4--4-4-|

Chorus 
C#|----------------------------------------------------------------------|
C#|----------------------------------------------------------------------|
C#|----------------------------------------------------------------------| x 2
C#|-00000000000000005-55555555555555-99999999-55555555-22222222-55555555-|

Interlude
C#|-----------------------------------------|
C#|-----------------------------------------|
C#|-----------------------------------------|
C#|-/9----------5--5--/9----------5x-5x-555-|

Verse II
C#|----------------------------------------------------------------------------------|
C#|----------------------------------------------------------------------------------|
C#|----------------------------------------------------------------------------------| 
C#|-99999999-55555555-00000000-44444444-99999999-55555555/1212121212121212-44--4--4--|

C#|--------------------------------------------------------------------------|
C#|--------------------------------------------------------------------------|
C#|--------------------------------------------------------------------------| 
C#|-99999999-55555555-00000000-44444444-99999999-55555555-00000000-4--4--44--|

Pre-Chorus II
C#|----------------------------------------|
C#|----------------------------------------|
C#|----------------------------------------| x 2
C#|-5555555555555555555555555-4--4--4--4-4-|

C#|---------------------------------------|
C#|---------------------------------------|
C#|---------------------------------------|
C#|-5--5----5--5----5--5--------5--4-4-4--|

Chorus

Outro
C#|----------------------------------------------------------|
C#|----------------------------------------------------------|
C#|----------------------------------------------------------|
C#|-/9----5--5--5/9----5--5--5/9----5--5--5/9----5x--5x--5x--|



10. A RAINDANCE IN TRAFFIC


Intro
F#|------------------------------------------------------------------------|
C#|------------------------------------------------------------------------|
G#|------------------------------------------------------------------------|
C#|-00000000-55555555-99999999-44444444-55555555-00000000-7777777777777777-|

Verse I
F#|---------------------------|
C#|---------------------------|
G#|---------------------------|
C#|-5~--------9-99-94-444-444-|

F#|---------------------------------------------------------------------|
C#|---------------------------------------------------------------------|
G#|---------------------------------------------------------------------|
C#|-55555555-00000000-9-99-94-444-444-2222222222222222-5555555555555555-|

Pre-Chorus
F#|------------------------------------|
C#|------------------------------------|
G#|------------------------------------| x 2
C#|-777777777777-9999-5555555555555555-|

Chorus
F#|-----------------------------------------------------------------|
C#|-----------------------------------------------------------------|
G#|-----------------------------------------------------------------|
C#|----0-0-0-0-0-0-9-9-9-9-55555555----0-0-0-0-0-0-9-9-9-9-55555555-|

F#|------------------------------------------------------------------|
C#|------------------------------------------------------------------|
G#|------------------------------------------------------------------|
C#|-7-7-7-7-9-9-9-9-5-5-5-5-5-5-5-5-0-0-0-0-4-4-4-4-5555555555555555-|

Intro

Verse II
F#|-------------------------------------|
C#|-------------------------------------|
G#|-------------------------------------| x 3
C#|-55555555-00000000-99999999-44444444-|

F#|-----------------------------------|
C#|-----------------------------------|
G#|-----------------------------------|
C#|-2222222222222222-5555555555555555-|

Pre-Chorus II
F#|------------------|
C#|------------------|
G#|------------------|
C#|-7~-------/9--\5x-|

F#|------------------|
C#|------------------|
G#|------------------|
C#|-5555555555555555-|

Chorus

Guitar Solo
F#|------------------------------------------------------------------------|
C#|------------------------------------------------------------------------|
G#|------------------------------------------------------------------------|
C#|-000000000000-4444-5555555555555555-99999999-0000-4444-55555555-5-5-5-5-|

Bridge
F#|-----------------------------------------------------------------|
C#|-----------------------------------------------------------------|
G#|-----------------------------------------------------------------|
C#|-0-0-0-0-0-0-0-0-0-0-0-0-0-0-0-4-5-5-5-5-5-5-5-5-5-5-5-5-5-5-5-5-|

F#|-----------------------------------------------------------------|
C#|-----------------------------------------------------------------|
G#|-----------------------------------------------------------------|
C#|-0-0-0-0-0-0-0-0-0-0-0-0-0-0-0-4-5~------------------------------|

F#|-------------------------------------------------------------|
C#|-------------------------------------------------------------|
G#|-------------------------------------------------------------|
C#|-0-0-0-0--0-0-0-0-0-0-0--0-0-4-5-5-5-5--5-5-5-5-5-5-5--5-5-7-|

F#|-----------------------------------------------------------------|
C#|-----------------------------------------------------------------|
G#|-----------------------------------------------------------------|
C#|-9-9-9-9-9-9-9-9-0-0-0-0-0-0-0-4-5-5-5-5-5-5-5-5-5-5-5-5-5-5-5-5-|

Final Chorus
F#|--------------------------------------------------------------|
C#|--------------------------------------------------------------|
G#|--------------------------------------------------------------|
C#|-0-0-0-0--0-0-0-0-0-0-0--0-0-4-5-5-5-5--5-5-5-5-5555-5-55-557-|

F#|--------------------------------------------------------------------------|
C#|--------------------------------------------------------------------------|
G#|--------------------------------------------------------------------------|
C#|-9-9-9-9-9-9-9-9-12-12-12-12-12-12-12\-0-5-5-5-5-5-5-5-5-5555555555555555-|

End on:
F#|-----------|
C#|-----------|
G#|-----------|
C#|-0~--------|



11. MADELYN (NO BASS)


12. CUL-DE-SAC


Intro
F#|--------------------------------------------------------------------------|
C#|--------------------------------------------------------------------------|
G#|--------------------------------------------------------------------------|
C#|-6-6-6-7--7-7-7-7-7-7-7-7-7-7-7-7-6-6-6-7--7-7-7-7-7-7-7-7-7-7-7-7-4-4-4--|

F#|-------------------------------------------------------------------|
C#|-------------------------------------------------------------------|
G#|-------------------------------------------------------------------|
C#|-2--2-2-2-2-2-2-2-2-2-2-2-2-4-4-4-2--2-2-2-2-2-2-2-2-2-2-2-2-6-6-6-|

F#|-------------------------------------------------------------------|
C#|-------------------------------------------------------------------|
G#|-------------------------------------------------------------------|
C#|-7--7-7-7-7-7-7-7-7-7-7-7-7-6-6-6-7--7-7-7-7-7-7-7-7-8-8-9-9-10-10-|

Verse I
F#|-------------------------------------------------------|
C#|-------------------------------------------------------|
G#|-------------------------------------------------------|
C#|--------------------------------------7~---------------|

F#|-------------------------------------------------|
C#|-------------------------------------------------|
G#|-4--4--4--4--7--7--7--7--2--2--2--2--2--2--3--3--|
C#|-------------------------------------------------|

F#|-------------------------------------------------------------------|
C#|-------------------------------------------------------------------|
G#|-4-4-4-4-4-4-4-4-3-3-3-3-3-3-3-3-2-2-2-2-2-2-2-2-0~----------------|
C#|-------------------------------------------------------------------|

Pre-Chorus
F#|-----------------------------------------------------------------|
C#|-----------------------------------------------------------------|
G#|-----------------------------------------------------------------|
C#|-2-2-2-2-2-2-2-2-4-4-4-4-4-4-4-4-7-7-7-7-7-7-7-7-7-7-7-7-7-7-7-7-|

F#|------------------------------------------------------------------|
C#|------------------------------------------------------------------|
G#|-4-4----7-7----2-2------------------------------------------------| 
C#|----------------------6-6----6-6-6-7--7-7-7-7-7-7-7-7-7-7-7-7-7-7-|

F#|------------------------------------------------------------------|
C#|------------------------------------------------------------------|
G#|-4-4----7-7----2-2------------------------------------------------| 
C#|----------------------6-6----6-6-6-7--7-7-7-7-7-7-7-7-7-7-7-6-6-6-|

Chorus
F#|-------------------------------------------------------------------|
C#|-------------------------------------------------------------------|
G#|-------------------------------------------------------------------|
C#|-2--2-2-2-2-2-2-2-2-2-2-2-2-4-4-4-2--2-2-2-2-2-2-2-2-2-2-2-2-6-6-6-|

F#|-------------------------------------------------------------------|
C#|-------------------------------------------------------------------|
G#|-------------------------------------------------------------------|
C#|-7--7-7-7-7-7-7-7-7-7-7-7-7-6-6-6-7--7-7-7-7-7-7-7-7-7-7-7-7-4-4-4-|

F#|-------------------------------------------------------------------|
C#|-------------------------------------------------------------------|
G#|-------------------------------------------------------------------|
C#|-2--2-2-2-2-2-2-2-2-2-2-2-2-4-4-4-2--2-2-2-2-2-2-2-2-2-2-2-2-6-6-6-|

F#|-------------------------------------------------------------------|
C#|-------------------------------------------------------------------|
G#|-------------------------------------------------------------------|
C#|-7--7-7-7-7-7-7-7-7-7-7-7-7-6-6-6-7--7-7-7-7-7-7-7-7-8-8-9-9-10-10-|

Verse II
F#|--------------------------------------------------------------|
C#|--------------------------------------------------------------|
G#|-4-4-4-4-4-4-4-4-3-3-3-3-3-3-3-3-2-2-2-2-2-2-2-2-0~-----------|
C#|--------------------------------------------------------------|

F#|-------------------------------------------------|
C#|-------------------------------------------------|
G#|-4--4--4--4--7--7--7--7--2--2--2--2--2--2--3--3--|
C#|-------------------------------------------------|

F#|-------------------------------------------------|
C#|-------------------------------------------------|
G#|-4--4--4--4--3--3--3--3--2--2--2--2-/12~---------|
C#|-------------------------------------------------|

Pre-Chorus (same as before)

Chorus II
F#|-------------------------------------------------------------------|
C#|-------------------------------------------------------------------|
G#|-------------------------------------------------------------------|
C#|-2--2-2-2-2-2-2-2-2-2-2-2-2-4-4-4-2--2-2-2-2-2-2-2-2-2-2-2-2-6-6-6-|

F#|-------------------------------------------------------------------|
C#|-------------------------------------------------------------------|
G#|-------------------------------------------------------------------|
C#|-7--7-7-7-7-7-7-7-7-7-7-7-7-6-6-6-7--7-7-7-7-7-7-7-7-7-7-7-7-4-4-4-|

F#|-------------------------------------------------------------------|
C#|-------------------------------------------------------------------|
G#|-------------------------------------------------------------------|
C#|-2--2-2-2-2-2-2-2-2-2-2-2-2-4-4-4-2--2-2-2-2-2-2-2-2-2-2-2-2-6-6-6-|

F#|-------------------------------------------------------------|
C#|-------------------------------------------------------------|
G#|-------------------------------------------------------------|
C#|-7--7-7-7-7-7-7-7-7-7-7-7-7-6-6-6-7--7-7-7-7-7-7-7--2--4--6--|

Bridge (come in with the rest of the band)
F#|-------------------------------------------------------------------------------------|
C#|-------------------------------------------------------------------------------------|
G#|-4----7--2--------------------------------------4----7--2----------------------------|
C#|--------------6----7----7--7--7--7--7--7--7--7---------------6----7----7--7----4--4--|

F#|-------------------------------------------------------------------------------------|
C#|-------------------------------------------------------------------------------------|
G#|-4----7--2--------------------------------------4----7--2----------------------------|
C#|--------------6----7----7--7--7--7--7--7--7--7---------------6----7----4--4----4--4--|

F#|------------------------|
C#|--------------------4\--|
G#|------------------------|
C#|-4--4----4--4----4------|

F#|-------------------------------------------------------------------------------------|
C#|-------------------------------------------------------------------------------------|
G#|-4----7--2--------------------------------------4----7--2----------------------------|
C#|--------------6----7----7--7--7--7--7--7--7--7---------------6----7----7--7----4--4--|

F#|---------------------------------|
C#|---------------------------------|
G#|---------------------------------|
C#|-7-7-7-7-7-7-7-7-7-7-7-7-7-4-4-4-|

Final Chorus
F#|-----------------------------------|
C#|-----------------------------------|
G#|-----------------------------------|
C#|-2-2-2-2-2-2-2-2-2-2-2-2-2-2-4-4-4-|

F#|----------------------------------------------------------------------------------------------|
C#|----------------------------------------------------------------------------------------------|
G#|-4-4----7-7----2-2----------------------------------------------------------------------------| 
C#|----------------------6-6----6-6-6-7--7-7-7-7-7-7-7-7-7-7-7-6-6-6-7-7-7-7-7-7-7-7-7-7-7-4-4-4-|

F#|-----------------------------------|
C#|-----------------------------------|
G#|-----------------------------------|
C#|-2-2-2-2-2-2-2-2-2-2-2-2-2-2-4-4-4-|

F#|------------------------------------------------------------------------------------------------|
C#|------------------------------------------------------------------------------------------------|
G#|-4-4----7-7----2-2------------------------------------------------------------------------------| 
C#|----------------------6-6----6-6-6-7--7-7-7-7-7-7-7-7-7-7-7-6-6-6-7-7-7-7-7-7-7-7-8-8-9-9-10-10-|

Outro
F#|-----------------------------|
C#|-----------------------------|
G#|-4----7--2-------------------|
C#|--------------6----7~--------|



13. I JUST WANT TO SELL OUT MY FUNERAL



Verse I (come in at 0:40)
F#|--------------------------------------------|
C#|---------------------------------4-5~----4--|
G#|-5~--------5~--------2~----5~---------------|
C#|--------------------------------------------|

F#|-----------------------------------------------------|
C#|-----------------------------------------------------|
G#|-5~--------5~--------2-2-2-2-5-5-5-5-----------------|
C#|-------------------------------------5-5-5-5-5-5-7-7-|

Chorus
F#|---------------------------------------------------------|
C#|---------------------------------------------------------|
G#|-------------------------2-2-2-2-2-2-0-0-0-0-0-0-0-0-0-0-| x 4
C#|-5--5--5--5--5--5--5--5----------------------------------|

Verse II
F#|---------------------------------------------|
C#|---------------------------------------------|
G#|---------------------------------------------| x 2
C#|-12-12-12-12-12-12-12\0----12-12-12-12-12-12-|

F#|-----------------------------------------------------------------------------|
C#|-----------------------------------------------------------------------------|
G#|-------------------------------9-9-10-10-10-10-10-10-10-10--10-10-10-9-9-7-7-|
C#|-9-9-9-9-9-9-9-9---9-9-9-12-12-----------------------------------------------|

F#|---------------------------------------------|
C#|---------------------------------------------|
G#|---------------------------------------------| x 2
C#|-12-12-12-12-12-12-12\0----12-12-12-12-12-12-|

F#|-----------------------------------------------------------------------------------|
C#|-----------------------------------------------------------------------------------|
G#|-------------------------------9-9-10-10-10-10-10-10-10-10-10-10-10-10-10-10-10-10-|
C#|-9-9-9-9-9-9-9-9---9-9-9-12-12-----------------------------------------------------|

Pre-Chorus
F#|-------------------------------------------------------|
C#|-------------------------------------------------------|
G#|-------------------------------------------------------|
C#|-0~----5~----7~--------0-0-0-0-5-5-5-5-7-7-7-7-7-7-7-7-|

Chorus

Bridge
F#|-------------------------------------------------------------|
C#|---------------------------------------------5-5-5-5-5-5-5-5-|
G#|-----------------------------2~----2-5~----5-----------------| x 2
C#|-0~----0-0~----0~----0-0~------------------------------------|

F#|------------------------------------------------------------------------|
C#|------------------------------------------------------------------------|
G#|------------------------------------------------------------------------|
C#|-0-00000--0-00000--0-00000--0-0000-4-5-55555--5-55555--5-55555--5-5-5-5-|

"I was just happy to be a contender"
F#|-----------------------------------------------------------------|
C#|-----------------------------------------------------------------|
G#|-----------------------------------------------------------------| x 2
C#|-0-0-0-0-0-0-0-0-0-0-0-0-0-0-0-4-5-5-5-5-5-5-5-5-5-5-5-5-5-5-5-5-|

F#|----------------------------------------------------|
C#|----------------------------------------------------|
G#|----------------------------------------------------|
C#|-9-9-9-9-9-9-9-9\0-0-0-0-0-0-0-0-9-9-9-9-9-9-9-9-5x-|

"I'm sorry I don't laugh at the right times"
F#|-----------------------------------------------------------|
C#|-----------------------------------------------------------|
G#|-------------------------7-5-------------------------------| 
C#|-9-9-9-12--12--5--5--7-7------9-9-9-12--12--5--5--5-5-5-5--|

F#|---------------------------------------------------------|
C#|---------------------------------------------------------|
G#|-------------------------7-5----------------------9-7-5--| 
C#|-9-9-9-12--12--5--5--7-7------9-9-9-12--12--5--5---------|

F#|---------------------------------------------------------------------|
C#|---------------------------------------------------------------------|
G#|---------------------------------------------------------------------| x 2
C#|-9-9-9-9-7-7-7-7-5-5-5-5-0-0-0-0-9-9-9-9-12-12-12-12-5-5-5-5-5-5-5-5-|

"I was kinda hoping you'd stay" 
F#|-------------------------------------------------------------------------------------|
C#|-------------------------------------------------------------------------------------|
G#|-------------------------------------------------------------------------------------|
C#|-4-4-4-4-5-5-5-5-7-7-7-7-7-7-7-7-4-4-4-4-5-5-5-5-12-12-12-12\7-7-7-7-5-5-5-5-7-7-7-7-|

F#|---------------------------------------------------------------------|
C#|---------------------------------------------------------------------|
G#|---------------------------------------------------------------------| x 2
C#|-9-9-9-9-7-7-7-7-5-5-5-5-0-0-0-0-9-9-9-9-12-12-12-12-5-5-5-5-5-5-5-5-|

"I'm in an airport, and you're in a hospital bed"
F#|-------------------------------------------------|
C#|-------------------------------------------------|
G#|-------------------------------------------------|
C#|-0~-------5~-------0-0-0-0--0-0-0-7-7-7-7--7-7-7-|

F#|-------------------------------------------------------------|
C#|-------------------------------------------------------------|
G#|-------------------------------------------------------------| x 2
C#|-0-0-0-0-----5-5-5-5----/12\--0-0-0-0--0-0-0-7-7-7-7--7-7-7--|

F#|---------------------------------|
C#|---------------------------------|
G#|---------------------------------|
C#|-0-0-0-0-0-0-0-0-5-5-5-5-5-5-5-5-|

"(What kind of man does that make me?)"
F#|-----------------------------------------------------------------|
C#|-----------------------------------------------------------------|
G#|-----------------------------------------------------------------| x 2
C#|-0-0-0-0-0-0-0-0-7-7-7-7-7-7-7-7-5-5-5-5-5-5-5-5-5-5-5-5-5-5-5-5-|

"I know how it feels to be at war with a world that never loved me"

("When all we had were handidowns")
F#|-------------------------------------------|
C#|-------------------------------------------|
G#|-------------------------------------------|
C#|-(0)~--------(7)~--------(5)~--------5--5--|

F#|-----------------------------------------------------------------|
C#|-----------------------------------------------------------------|
G#|-----------------------------------------------------------------| x 2
C#|-0-0-0-0-0-0-0-0-7-7-7-7-7-7-7-7-5-5-5-5-5-5-5-5-5-5-5-5-5-5-5-5-|

"Two blackbirds on a highway sign"
F#|-----------------------------------------------------------------|
C#|-----------------------------------------------------------------|
G#|-----------------------------------------------------------------| 
C#|-0-0-0-0-0-0-0-0-7-7-7-7-7-7-7-7-5-5-5-5-5-5-5-5-5-5-5-5-5-5-5-5-|
                                                                                    x 2
F#|-------------------------------------------------------------------------|
C#|-------------------------------------------------------------------------|
G#|-------------------------------------------------------------------------|
C#|-12-12-12-12-12-12-12-12-7-7-7-7-7-7-7-7-5-5-5-5-5-5-5-5-5-5-5-5-5-5-5-5-|

"'Cause I'm sick of seeing ghosts"
F#|----------------------------------------------------|
C#|----------------------------------------------------|
G#|----------------------------------------------------| x 4
C#|--0-0-0-0--0--5--5--5--5----9-9-9-9--9--7--7--7--7--|



happy playing!



| /  slide up
| \  slide down
| h  hammer-on
| p  pull-off
| ~  vibrato
| +  harmonic
| x  Mute note
===============================================================================
Добавлено: 13.03.2016
Другие материалы по этой песне:
  • Аккорды и текст

Страница создана 13.03.2016
http://primanota.ru/the-wonder-years/greatest-generation-album-chords.htm
Привет, Гость.
Предлагаем пройти революционный курс по гитаре.
Подарок от PrimaNota.Ru, забирай!