PrimaNota.ru - самый крупный в мире бесплатный архив песенных текстов, аккордов, табулатур и нот


The Wonder Years - Cigarettes And Saints - таба, бас-таба, видео

Регистрация Запомнить меня
Войти через:  Facebook Google Twitter Vk Yandex Mail.ru

The Wonder Years - Cigarettes And Saints - таба, бас-таба, видео

Печатать
Просмотров: 44
-------------------------------------------------------------------------------
                       CIGARETTES & SAINTS - The Wonder Years
-------------------------------------------------------------------------------
Tabbed by: Blake McConnell
E-mail: blakekelseymcconnell@gmail.com

Check out my cover: https://www.youtube.com/watch?v=wRpL6_eZp6o

Tuning: Half step down

Verse 1
e|-----0------------------------------0--------------------------------------|
B|--8/9-9-7b8b7---------------9-7--8/9-9-7b8b7---9-7-------------------------|
G|-------------9~---------9~------------------9------9-8-6-------------------|
D|---------------------6/9---------------------------9-9-9-------------------|
A|---------------------------------------------------------------------------|
E|---------------------------------------------------------------------------|

Chorus
e|-------------------------------0-----0------0--797-------------------------|
B|--9--7-9-7-9--7-9-7-----------0-0---0-0--8/9-9----9------------------------|
G|--9--9-9-9-9--9-9-9-9-8-6----4-----6-----------------------2 times---------|
D|--------------------9-9-9---6-----7----------------------------------------|
A|---------------------------------------------------------------------------|
E|---------------------------------------------------------------------------|

Interlude
e|--------0-----------------0~--00000000-------------------------------------|
B|-9-7-8/9-9-7b8b7---9-7----0~--00000000-------------------------------------|
G|----------------9-----9-8-9~--99999999-------------------------------------|
D|----------------------9-9-9~--99999999-------------------------------------|
A|--------------------------0~--00000000-------------------------------------|
E|---------------------------------------------------------------------------|

Chorus

Bridge 
e|---------------------------------------------------------------------------|
B|---------------------------------------------------------------------------|
G|---------------------------------------------------------------------------|
D|-44444444-77777777-22222222-22222222--2 times-4--7--11-9-7~----------------|
A|-44444444-77777777-22222222-22222222----------4--7--11-9-7~----------------|
E|-22222222-55555555-00000000-00000000----------2--5--9--7-5~----------------|

e|-------------------0-0--0---0----------------------------------------------|
B|--------------------0--0---0-----------------------------------------------|
G|-----------------9----8---6------------------------------------------------|
D|---9-----9------6---------------8 times------------------------------------|
A|--7---/11-9----7-----------------------------------------------------------|
E|-0-------------------------------------------------------------------------|

e|---------------------------------------------------------------------------|
B|---------------------------------------------------------------------------|
G|---------------------------------------------------------------------------|
D|-22222222-22222222-77777777-7777777---4 times------------------------------|
A|-22222222-22222222-77777777-7777777----------------------------------------|
E|-00000000-00000000-55555555-5555555----------------------------------------|
PM===================================

Outro
e|---------------------------------------------------------------------------|
B|---------------------------------------------------------------------------|
G|---------------------------------------------------------------------------|
D|-22222222-22222222-77777777-77777777--4 times------------------------------|
A|-22222222-22222222-77777777-77777777---------------------------------------|
E|-00000000-00000000-55555555-55555555---------------------------------------|

e|---------------------------------------------------------------------------|
B|---------------------------------------------------------------------------|
G|---------------------------------------------------------------------------|
D|-222-22-22-22-777-77-77-77-222-22-22-22-77777777-77777777-2----------------|
A|-222-22-22-22-777-77-77-77-222-22-22-22-77777777-77777777-2----------------|
E|-000-00-00-00-555-55-55-55-000-00-00-00-55555555-55555555-0----------------|


************************************

| /   slide up
| \   slide down
| h   hammer-on
| p   pull-off
| ~   vibrato
| +   harmonic
| x   Mute note
| b   Bend
| pb  Pre-bend
| br  Bend release
| pbr Pre-bend release
| brb Bend release bend

************************************
Добавлено: 27.11.2015
Другие материалы по этой песне:
  • Аккорды и текст

Страница создана 10.10.2015
http://primanota.ru/the-wonder-years/cigarettes-and-saints-chords.htm
Привет, Гость.
Предлагаем пройти революционный курс по гитаре.
Подарок от PrimaNota.Ru, забирай!