PrimaNota.ru - самый крупный в мире бесплатный архив песенных текстов, аккордов, табулатур и нот


The Wonder Years - Chaser - таба, бас-таба, видео

Регистрация Запомнить меня
Войти через:  Facebook Google Twitter Vk Yandex Mail.ru

The Wonder Years - Chaser - таба, бас-таба, видео

Печатать
Просмотров: 98
Авторы: The Wonder Years
Авторы текста: Dan Campbell
Band: The Wonder Years
Song: Chaser
Album: The Greatest Generation
Tuning Drop C#
C# G# C# F# A# Eb

The solo in the bridge I'm not sure about. So if anyone knows it, feel free to add it. I'm pretty confidant 
that that the rest is spot on. 

Intro: Lead guitar
       3X             Then
Eb|-------0---4--|-------0---2-|
A#|-0h2h4---2----|-0h2h4---2---|
F#|--------------|-------------|
C#|--------------|-------------|
G#|--------------|-------------|
C#|--------------|-------------|

Intro: Rhythm guitar
Eb|-0-|---|-0-|---|
A#|-5-|---|-0-|---|
F#|-6-|-4-|-2-|-4-|
C#|-6-|-2-|-2-|-4-|
G#|-4-|-2-|-0-|-2-|
C#|---|-2-|---|---|

Verse: Rhythm guitar 2X
 PM * * *   * *   * * * * * * * * * * *   * *   * * * * * * * *
Eb|-0-0-0-0-0-0-0-----------------------------------------------|
A#|-5-5-5-5-5-5-5-----------------------------------------------|
F#|-6-6-6-6-6-6-6-6-6-6-6-6-6-6-6-4-4-4-4-4-4-4-4-4-4-4-4-4-4-4-|
C#|-6-6-6-6-6-6-6-6-6-6-6-6-6-6-6-2-2-2-2-2-2-2-2-2-2-2-2-2-2-2-|
G#|-4-4-4-4-4-4-4-4-4-4-4-4-4-4-4-2-2-2-2-2-2-2-2-2-2-2-2-2-2-2-|
C#|-------------------------------2-2-2-2-2-2-2-2-2-2-2-2-2-2-2-|
 PM * * *   * *   * * * * * * * * * * *   * *   * * * * * * * *
Eb|-------------------------------------------------------------|
A#|-0-0-0-0-0-0-0-0-0-0-0-0-0-0-0-------------------------------|
F#|-2-2-2-2-2-2-2-2-2-2-2-2-2-2-2-4-4-4-4-4-4-4-4-4-4-4-4-4-4-4-|
C#|-2-2-2-2-2-2-2-2-2-2-2-2-2-2-2-4-4-4-4-4-4-4-4-4-4-4-4-4-4-4-|
G#|-0-0-0-0-0-0-0-0-0-0-0-0-0-0-0-2-2-2-2-2-2-2-2-2-2-2-2-2-2-2-|
C#|-------------------------------------------------------------|

Pre-Chorus:
Eb|-0-0-0-0-0-0-0-0-0-0-0-0-0-0-0-0-0-0-0-0-0-0-0-0-0-0-0-0-0-|
A#|-0-0-0-0-0-0-0-0-0-0-0-0-0-0-0-0-0-0-0-0-0-0-0-0-0-0-0-0-0-|
F#|-2-2-2-2-2-2-2-2-4-4-4-4-4-4-4-4-2-2-2-2-2-2-2-2-4-4-4-4-4-|
C#|-2-2-2-2-2-2-2-2-4-4-4-4-4-4-4-4-2-2-2-2-2-2-2-2-4-4-4-4-4-|
G#|-0-0-0-0-0-0-0-0-2-2-2-2-2-2-2-2-0-0-0-0-0-0-0-0-2-2-2-2-2-|
C#|-----------------------------------------------------------|

Chorus: Rhythm guitar
                3X                                      Last
Eb|-----------------------------------X-X-|-----------------0-0-0-0-0-0-0-0-|
A#|-0-0-0-0-0-0-0-0-0-0-0-0-0-0-0-0-0-X-X-|-0-0-0-0-0-0-0-0-5-5-5-5-0-0-0-0-|
F#|-4-4-4-4-4-4-4-4-2-2-2-2-2-2-2-2-2-X-X-|-4-4-4-4-4-4-4-4-6-6-6-6-4-4-4-4-|
C#|-2-2-2-2-2-2-2-2-2-2-2-2-2-2-2-2-2-X-X-|-2-2-2-2-2-2-2-2-6-6-6-6-4-4-4-4-|
G#|-2-2-2-2-2-2-2-2-0-0-0-0-0-0-0-0-0-X-X-|-2-2-2-2-2-2-2-2-4-4-4-4-2-2-2-2-|
C#|-2-2-2-2-2-2-2-2-------------------X-X-|-2-2-2-2-2-2-2-2-----------------|

Then there is this fill. Same as the Intro.

Lead guitar
       3X             Then
Eb|-------0---4--|-------0---2-|
A#|-0h2h4---2----|-0h2h4---2---|
F#|--------------|-------------|
C#|--------------|-------------|
G#|--------------|-------------|
C#|--------------|-------------|

Rhythm guitar
Eb|-0-|---|-0-|---|
A#|-5-|---|-0-|---|
F#|-6-|-4-|-2-|-4-|
C#|-6-|-2-|-2-|-4-|
G#|-4-|-2-|-0-|-2-|
C#|---|-2-|---|---|

Verse: Rhythm guitar 2X
 PM * * *   * *   * * * * * * * * * * *   * *   * * * * * * * *
Eb|-0-0-0-0-0-0-0-----------------------------------------------|
A#|-5-5-5-5-5-5-5-----------------------------------------------|
F#|-6-6-6-6-6-6-6-6-6-6-6-6-6-6-6-4-4-4-4-4-4-4-4-4-4-4-4-4-4-4-|
C#|-6-6-6-6-6-6-6-6-6-6-6-6-6-6-6-2-2-2-2-2-2-2-2-2-2-2-2-2-2-2-|
G#|-4-4-4-4-4-4-4-4-4-4-4-4-4-4-4-2-2-2-2-2-2-2-2-2-2-2-2-2-2-2-|
C#|-------------------------------2-2-2-2-2-2-2-2-2-2-2-2-2-2-2-|
 PM * * *   * *   * * * * * * * * * * *   * *   * * * * * * * *
Eb|-------------------------------------------------------------|
A#|-0-0-0-0-0-0-0-0-0-0-0-0-0-0-0-------------------------------|
F#|-2-2-2-2-2-2-2-2-2-2-2-2-2-2-2-4-4-4-4-4-4-4-4-4-4-4-4-4-4-4-|
C#|-2-2-2-2-2-2-2-2-2-2-2-2-2-2-2-4-4-4-4-4-4-4-4-4-4-4-4-4-4-4-|
G#|-0-0-0-0-0-0-0-0-0-0-0-0-0-0-0-2-2-2-2-2-2-2-2-2-2-2-2-2-2-2-|
C#|-------------------------------------------------------------|

Lead guitar
       3X
Eb|-------0---4b-|
A#|-0h2h4---2----|
F#|--------------|
C#|--------------|
G#|--------------|
C#|--------------|

Chorus: Rhythm guitar
                3X                                      Last
Eb|-----------------------------------X-X-|-----------------0-0-0-0-0-0-0-0-|
A#|-0-0-0-0-0-0-0-0-0-0-0-0-0-0-0-0-0-X-X-|-0-0-0-0-0-0-0-0-5-5-5-5-0-0-0-0-|
F#|-4-4-4-4-4-4-4-4-2-2-2-2-2-2-2-2-2-X-X-|-4-4-4-4-4-4-4-4-6-6-6-6-4-4-4-4-|
C#|-2-2-2-2-2-2-2-2-2-2-2-2-2-2-2-2-2-X-X-|-2-2-2-2-2-2-2-2-6-6-6-6-4-4-4-4-|
G#|-2-2-2-2-2-2-2-2-0-0-0-0-0-0-0-0-0-X-X-|-2-2-2-2-2-2-2-2-4-4-4-4-2-2-2-2-|
C#|-2-2-2-2-2-2-2-2-------------------X-X-|-2-2-2-2-2-2-2-2-----------------|

Bridge: 2X
Eb|-------------------------------------------------------------------------0-0-0-0-0-0-------------|
A#|-------------------------0-0-0-0-0-0-0-0-0-0-0-0-------------------------5-5-5-5-5-5-------------|
F#|-4-4-4-4-4-4-4-4-4-4-4-4-2-2-2-2-2-2-2-2-2-2-2-2-4-4-4-4-4-4-4-4-4-4-4-4-6-6-6-6-6-6-4-4-4-4-4-4-|
C#|-2-2-2-2-2-2-2-2-2-2-2-2-2-2-2-2-2-2-2-2-2-2-2-2-2-2-2-2-2-2-2-2-2-2-2-2-6-6-6-6-6-6-4-4-4-4-4-4-|
G#|-2-2-2-2-2-2-2-2-2-2-2-2-0-0-0-0-0-0-0-0-0-0-0-0-2-2-2-2-2-2-2-2-2-2-2-2-4-4-4-4-4-4-2-2-2-2-2-2-|
C#|-2-2-2-2-2-2-2-2-2-2-2-2-------------------------2-2-2-2-2-2-2-2-2-2-2-2-------------------------|

            2X
Eb|-0----0----0-----0--0-|
A#|-0----0----0-----5--0-|
F#|-4----2----4-----6--4-|
C#|-2----2----2-----6--4-|
G#|-2----0----2-----4--2-|
C#|-2---------2----------|


Chorus: Rhythm guitar
                3X                                      Last
Eb|-----------------------------------X-X-|-----------------0-0-0-0-0-0-0-0-|
A#|-0-0-0-0-0-0-0-0-0-0-0-0-0-0-0-0-0-X-X-|-0-0-0-0-0-0-0-0-5-5-5-5-0-0-0-0-|
F#|-4-4-4-4-4-4-4-4-2-2-2-2-2-2-2-2-2-X-X-|-4-4-4-4-4-4-4-4-6-6-6-6-4-4-4-4-|
C#|-2-2-2-2-2-2-2-2-2-2-2-2-2-2-2-2-2-X-X-|-2-2-2-2-2-2-2-2-6-6-6-6-4-4-4-4-|
G#|-2-2-2-2-2-2-2-2-0-0-0-0-0-0-0-0-0-X-X-|-2-2-2-2-2-2-2-2-4-4-4-4-2-2-2-2-|
C#|-2-2-2-2-2-2-2-2-------------------X-X-|-2-2-2-2-2-2-2-2-----------------|

Outro: Rhythm Guitar

Eb|-------------------------------------------------|-----------------------------0-0-0-0-0-0-0-------------|
A#|-------------------------------------------------|-----------------------------5-5-5-5-5-5-5-0-0-0-0-0-0-|
F#|-4-4-4-4-4-4-4-4-4-4-4-4-2-2-2-2-2-2-2-2-2-2-2-2-|-4-4-4-4-4-4-4-4-4-4-4-4-4-4-6-6-6-6-6-6-6-4-4-4-4-4-4-|
C#|-2-2-2-2-2-2-2-2-2-2-2-2-2-2-2-2-2-2-2-2-2-2-2-2-|-2-2-2-2-2-2-2-2-2-2-2-2-2-2-6-6-6-6-6-6-6-4-4-4-4-4-4-|
G#|-2-2-2-2-2-2-2-2-2-2-2-2-0-0-0-0-0-0-0-0-0-0-0-0-|-2-2-2-2-2-2-2-2-2-2-2-2-2-2-4-4-4-4-4-4-4-2-2-2-2-2-2-|
C#|-2-2-2-2-2-2-2-2-2-2-2-2-------------------------|-2-2-2-2-2-2-2-2-2-2-2-2-2-2---------------------------|

End on this:

Eb|-0-|
A#|-0-|
F#|-4-|
C#|-2-|
G#|-2-|
C#|-2-|
Добавлено: 10.10.2015
Другие материалы по этой песне:
  • Аккорды и текст

Страница создана 08.11.2014
http://primanota.ru/the-wonder-years/chaser-chords.htm
Привет, Гость.
Предлагаем пройти революционный курс по гитаре.
Подарок от PrimaNota.Ru, забирай!