PrimaNota.ru - самый крупный в мире бесплатный архив песенных текстов, аккордов, табулатур и нот


The Wonder Years - Buzz Aldrin The Poster Boy For Second Place - таба, видео

Регистрация Запомнить меня
Войти через:  Facebook Google Twitter Vk Yandex Mail.ru

The Wonder Years - Buzz Aldrin The Poster Boy For Second Place - таба, видео

Печатать
Просмотров: 90
Tuning: Drop C#

Intro do however many necessary.
Guitar 1
E|----------------------------------------|
B|----------------------------------------|
G|-77-6/77-6/77-6/77-6/77-6/77-6/77-6/7---|
D|-xx-x/xx-x/xx-x/xx-x/xx-x/xx-x/xx-x/x---|
A|-55-4/55-4/55-4/55-4/55-4/55-4/55-4/5---|
E|----------------------------------------|

Guitar 2
E|-----------------------------------------------|
B|-----------------------------------------------|
G|------------------1111--9/1111--9/1111--9/1111-|
D|-------------------x-x--x/-x-x--x/-x-x--x/-x-x-|
A|-------------------9-9--7/-9-9--7/-9-9--7/-9-9-|
E|-----------------------------------------------|


Chorus x2
E|--------------------------------------|
B|--------------------------------------|
G|-7777777------------------------------|
D|-7777777-77777777-22222222--22--2--45-|
A|-5555555-77777777-22222222--22--2--45-|
E|---------77777777-22222222--22--2--45-|


Verse 1
Guitar 1 (just first half of verse)
E|----------------------------------------------|
B|----------------------------------------------|
G|----------------------------------------------|
D|--4h5h7-4h5h7-4h5h7-4h5h7-5p4h5/9-5-4---4--7--|
A|--------------------------------------7-------|
E|----------------------------------------------|
Er Something like that^

Guitar 2 x2
E|-------------------------------------|
B|-------------------------------------|
G|-77777777----------------------------|
D|-77777777-77777777-44444444-55555555-|
A|-55555555-77777777-44444444-55555555-|
E|----------77777777-44444444-55555555-|
PM ........ ........ .......  .......


Chorus x2
E|--------------------------------------|
B|--------------------------------------|
G|-7777777------------------------------|
D|-7777777-77777777-44444444--22--2--45-|
A|-5555555-77777777-44444444--22--2--45-|
E|---------77777777-44444444--22--2--45-|

Post Chorus x2
E|--------------------------------------|
B|--------------------------------------|
G|-7------9------11------12-------------|
D|-x-x16--x-x16--x--x16--x--x16---------|
A|-5------7------9-------10-------------|
E|--------------------------------------|
5, 4, 3, 2, 1 let's take off....


Bridge
Guitar 1 x2
E|-------------------------------------|
B|-------------------------------------|
G|-77-77-------------------777----777--|
D|-77-77--77-77--44-44--55-777-55-777--|
A|-55-55--77-77--44-44--55-555-55-555--|
E|--------77-77--44-44--55-----55------|
Everyday we eat tooth paste...

Guitar 2 (last part only)
E|--------------------------------------|
B|--------------------------------------|
G|-1111-999-1212-1111-------------------|
D|-x-x--xxx--x-x-x-x--------------------|
A|-9-9--777-1010-9-9--------------------|
E|--------------------------------------|

Lead lick at the end of the bridge x4
E|--------------------------------------|
B|--------------------------------------|
G|-----777-666--------------------------|
D|-------------777-44-77-55-4-2---------|
A|-5555---------------------------------|
E|--------------------------------------|

Final Chorus x3
E|--------------------------------------|
B|--------------------------------------|
G|-7777777------------------------------|
D|-7777777-77777777-44444444--22--2--45-|
A|-5555555-77777777-44444444--22--2--45-|
E|---------77777777-44444444--22--2--45-|

End on a D.

The lead fills are close just kinda goof off with what i got
it'll sound pretty close to the song. Enjoy TWY! <3 Dan
Добавлено: 11.04.2012
Другие материалы по этой песне:
  • Аккорды и текст

Страница создана 11.04.2012
http://primanota.ru/the-wonder-years/buzz-aldrin-the-poster-boy-for-second-place-chords.htm
Привет, Гость.
Предлагаем пройти революционный курс по гитаре.
Подарок от PrimaNota.Ru, забирай!