PrimaNota.ru - самый крупный в мире бесплатный архив песенных текстов, аккордов, табулатур и нот


The Wonder Years - The Bluest Things On Earth - бас-таба, видео

Регистрация Запомнить меня
Войти через:  Facebook Google Twitter Vk Yandex Mail.ru

The Wonder Years - The Bluest Things On Earth - бас-таба, видео

Печатать
Просмотров: 131
Уроки эстрадного вокала в Санкт-Петербурге
Авторы музыки: Matt Brasch, Josh Martin, Dan Campbell, Mike Kennedy, Casey Cavaliere, Nick Steinborn
Авторы текста: Dan Campbell
The Wonder Years - The Bluest Things on Earth

Tabbed by: Ashy (XxThreeCheersxX)
E-mail: burdickash@gmail.com

Tuning: Drop C#

This song has interesting rhythms and time signatures; it will sound a bit funky at first.
Happy playing!

Verse I
F#|---------|
C#|---------|
G#|-4-5-4-2-|
C#|---------|

F#|----------------------------------------------------------------|
C#|----------------------------------------------------------------|
G#|-------------0-0---------4-4-4-4---------4-4--4---------4-5-4-2-| x 2
C#|-2-2-2-4-4-4-----4-4-4-4---------0-0-0-0--------0-0-0-0---------|

Interlude (come in at "clutching a memory")
F#|------------------------------|
C#|------------------------------|
G#|-0----/4----/5----/10~--------|
C#|------------------------------|

Pre-Chorus
F#|---------------------------------------------------------|
C#|---------------------------------------------------------|
G#|---------------------------------------------------------|
C#|-7-7----7-7----4-4----4-4----2-2----2-2----2-2----2-2----|

F#|---------------------------------------------------------|
C#|---------------------------------------------------------|
G#|---------------------------------------------------------|
C#|-4-4----4-4----4-4----4-4----7-7----7-7----7-7----7-7----|

F#|---------------------------------------------------------|
C#|---------------------------------------------------------|
G#|---------------------------------------------------------|
C#|-7-7----7-7----4-4----4-4----2-2-2-2-2-2-2-2-2-2-2-2x----|

F#|------------------------------|
C#|------------------------------|
G#|------------------------------|
C#|-0~----------------------0----|

Chorus
F#|---------------------------------------------------------------------------------------------------|
C#|---------------------------------------------------------------------------------------------------|
G#|-------------------------------------------------------------4-4-4-4-4-4-------------4-4-4-4-4-2-0-|
C#|-4-4-4-4-4-4-4-4-4-4-4-4-2-2-2-2-2-2-2-2-2-2-2-2-0-0-0-0-0-0-------------0-0-0-0-0-0---------------|

F#|---------------------------------------------------------------------------------------------------|
C#|---------------------------------------------------------------------------------------------------|
G#|-----------------------------------------0-2-4-2-------------4-4-4-4-4-4---------------------------|
C#|-4-4-4-4-4-4-6-6-6-6-7-7-2-2-2-2-2-2-2-2---------0-0-0-0-0-0-------------0-0-0-0-0-0x--------------|

Post-Chorus
F#|----------------------------------------------------------------|
C#|----------------------------------------------------------------|
G#|-------------0-0---------4-4-4-4---------4-4--4---------4-5-4-2-| x 2
C#|-2-2-2-4-4-4-----4-4-4-4---------0-0-0-0--------0-0-0-0---------|

Verse II
F#|------------------------------------------------|
C#|------------------------------------------------|
G#|-7-7----7-7--7-7----7-7--7-7----7-7--7-7----7-7-|
C#|------------------------------------------------|

F#|------------------------------------------------------------------------|
C#|------------------------------------------------------------------------|
G#|-9-9----9-9--4-4----4-4--5-5----5-5--5-5----5-5--5-5----5-5-------------|
C#|-------------------------------------------------------------0-0----0-0-|

F#|------------------------------------------------|
C#|------------------------------------------------|
G#|-7-7----7-7--7-7----7-7--7-7----7-7--7-7----7-7-|
C#|------------------------------------------------|

F#|-------------------------------------------------------------------------|
C#|-------------------------------------------------------------------------|
G#|-9-9----9-9--4-4----4-4--5-5----5-5--5-5----5-5--5-5----5-5--5x--5x--5x--|
C#|-------------------------------------------------------------------------|

Pre-Chorus II
F#|---------------------------------------------------------------------------------------------------|
C#|---------------------------------------------------------------------------------------------------|
G#|---------------------------------------------------------------------------------------------------|
C#|-7-7-7-7-7-7-4-4-4-4-4-4-2-2-2-2-2-2-2-2-2-2-2-2-4-4-4-4-4-4-4-4-4-4-4-7-4-0-0-0-0-0-0-0-0-0-0-0-0-|

F#|---------------------------------------------------------------------------|
C#|---------------------------------------------------------------------------|
G#|---------------------------------------------------------------------------|
C#|-7-7-7-7-7-7-4-4-4-4-4-4-2-2-2-2-2-2-2-2-2-2-2-2-0x------------------------|

Chorus II
F#|---------------------------------------------------------------------------------------------------|
C#|---------------------------------------------------------------------------------------------------|
G#|-------------------------------------------------------------4-4-4-4-4-4-------------4-4-4-4-4-2-0-|
C#|-4-4-4-4-4-4-4-4-4-4-4-4-2-2-2-2-2-2-2-2-2-2-2-2-0-0-0-0-0-0-------------0-0-0-0-0-0---------------|

F#|---------------------------------------------------------------------------------------------------|
C#|---------------------------------------------------------------------------------------------------|
G#|-----------------------------------------0-2-4-2-------------4-4-4-4-4-4-------------4-4-4-4-4-4-4-|
C#|-4-4-4-4-4-4-6-6-6-6-7-7-2-2-2-2-2-2-2-2---------0-0-0-0-0-0-------------0-0-0-0-0-0---------------|

Bridge
F#|------------------------------------------------|
C#|------------------------------------------------|
G#|-4~-------5~--------0~--------------------------|
C#|--------------------------------------6~--------|

F#|---------------------------------------------------------------------------|
C#|---------------------------------------------------------------------------|
G#|--------------------4~--------5~-------0~----------------------------------|
C#|-4~--------------------------------------------------------------6~--------|

F#|---------------------------------------------------------|
C#|---------------------------------------------------------|
G#|-----------------------------4--4--4-4x----5--5--5-5x----|
C#|-4--4--4-4x----4--4--4-4x--------------------------------|

F#|---------------------------------------------------------|
C#|---------------------------------------------------------|
G#|-0--0--0-0x----0--0--0-0x----0--0--0-0x------------------|
C#|-------------------------------------------6--6--6-6x----|

F#|---------------------------------------------------------|
C#|---------------------------------------------------------|
G#|-----------------------------4--4--4-4x----5--5--5-5x----|
C#|-4--4--4-4x----4--4--4-4x--------------------------------|

F#|-------------------------------------------------------|
C#|-------------------------------------------------------|
G#|-0--0--0-0x----0--0--0-0x------------------------------|
C#|-------------------------------------------6x--6x--6x--|

Final Chorus
F#|---------------------------------------------------------------------------------------------------|
C#|---------------------------------------------------------------------------------------------------|
G#|-------------------------------------------------------------4-4-4-4-4-4-------------4-4-4-4-4-2-0-|
C#|-4-4-4-4-4-4-4-4-4-4-4-4-2-2-2-2-2-2-2-2-2-2-2-2-0-0-0-0-0-0-------------0-0-0-0-0-0---------------|

F#|---------------------------------------------------------------------------------------------------|
C#|---------------------------------------------------------------------------------------------------|
G#|-----------------------------------------0-2-4-2-------------4-4-4-4-4-4-------------4-4-4-4-4-4-4-|
C#|-4-4-4-4-4-4-6-6-6-6-7-7-2-2-2-2-2-2-2-2---------0-0-0-0-0-0-------------0-0-0-0-0-0---------------|

Outro
F#|-------------------------------------|
C#|-------------------------------------|
G#|----------4--4-4-4----------4--4-4-4-|
C#|-0--0-0-0----------0--0-0-0----------|

| /  slide up
| \  slide down
| h  hammer-on
| p  pull-off
| ~  vibrato
| +  harmonic
| x  Mute note
===============================================================================
Добавлено: 13.03.2016
Другие материалы по этой песне:
  • Аккорды и текст

Страница создана 13.03.2016
http://primanota.ru/the-wonder-years/bluest-things-on-earth-chords.htm
Привет, Гость.
Предлагаем пройти революционный курс по гитаре.
Подарок от PrimaNota.Ru, забирай!