PrimaNota.ru - самый крупный в мире бесплатный архив песенных текстов, аккордов, табулатур и нот


The Wombats - Let Dance To Joy Division - бас-таба, видео

Регистрация Запомнить меня
Войти через:  Facebook Google Twitter Vk Yandex Mail.ru

The Wombats - Let Dance To Joy Division - бас-таба, видео

Печатать
Просмотров: 209
Уроки эстрадного вокала в Санкт-Петербурге
intro
|-----------8-8-8-8----------9-9-9-9--------|
|--9-9-9-9----------7-7-7-7-----------------|
|----------6-6-6-6----------7-7-7-7---------|
|-7-7-7-7----------5-5-5-5------------------|

verse
|-----------------------|
|-----------------------|x2
|------6-----------9----|
|-7----------5----------|

|-------------------|
|-------------------|
|---6------4-7--9---|x2
|-7-----6-5---------|

chours
|--------------------------------------|    |----------|
|--------------------------------------|x2  |----------|x1
|--------------------------------------|    |----------|
|-77777777-222222-44-55555555-00000000-|    |-00000000-|

Interlude
|--------------------|
|--------------------|
|------6666-----7777-|x1
|-7777------5555-----|


thats all the parts 
you just have to figure out how many time you play each one

enjoy
tabbed by: johnny poo poo pants!!!
Добавлено: 29.10.2013
Другие материалы по этой песне:
  • Аккорды и текст

Страница создана 29.10.2013
http://primanota.ru/the-wombats/let-dance-to-joy-division-chords.htm
Привет, Гость.
Предлагаем пройти революционный курс по гитаре.
Подарок от PrimaNota.Ru, забирай!