PrimaNota.ru - самый крупный в мире бесплатный архив песенных текстов, аккордов, табулатур и нот


The Wombats - Addicted To The Cure - текст песни, таба, видео

Регистрация Запомнить меня
Войти через:  Facebook Google Twitter Vk Yandex Mail.ru

The Wombats - Addicted To The Cure - текст песни, таба, видео

Печатать
Просмотров: 86
-------------------------------------------------------------------------------
		  Addicted To The Cure - The Wombats
-------------------------------------------------------------------------------
Tabbed by: Maarten
Email: maartencake@hotmail.nl

Tuning: EADGBe

  Intro (tremolo picking)
e|---------------------------------------------------------------------------|
B|---------------------------------------------------------------------------|
G|-13----11----6----4----8----16-- x2 ---------------------------------------|
D|---------------------------------------------------------------------------|
A|---------------------------------------------------------------------------|
E|---------------------------------------------------------------------------|

  Verse (It's a synth part but you can play the chords)

   F#m  B   E C#m  D
e|--2---2---7--4---5------------- Tremolo picking ---------------------------|
B|--2---4---9--5---7----- then ---11---13---16-------------------------------|
G|--2---4---9--6---7---------------------------------------------------------|
D|--4---4---9--6---7---------------------------------------------------------|
A|--4---2---7--4---5---------------------------------------------------------|
E|--2------------------------------------------------------------------------|

  Chorus
e|---9----7----4---------9----7----4-----------------------------------------|
B|--11----9----5--------11----9----5-----------------------------------------|
G|--11----9----6--------11----9----6-----------------------------------------|
D|--11----9----6--------11----9----6-----------------------------------------|
A|---9----7----4---------9----7----4-----------------------------------------|
E|---------------------------------------------------------------------------|

  Slow part
e|---5----7----44-4-----------12----------12----------12----------12---------|
B|---5----9----55-5--------14----14----14----14----14----14----14------------|
G|---6----9----66-6-----14----------14----------14----------14---------------|
D|---7----9----66-6----------------------------------------------------------|
A|---7----7----44-4----------------------------------------------------------|
E|---5-----------------------------------------------------------------------|

  Repeat Verse chord pattern

  Verse first part nothing, but then (Tremolo Picking)
e|---------------------------------------------------------------------------|
B|---------------------------------------------------------------------------|
G|-11---13---16-----11---13---16--- x2 ---11---13---16-----------------------|
D|---------------------------------------------------------------------------|
A|---------------------------------------------------------------------------|
E|---------------------------------------------------------------------------|

  Chorus
e|---9----7----4---------9----7----4-----------------------------------------|
B|--11----9----5--------11----9----5-----------------------------------------|
G|--11----9----6--------11----9----6-----------------------------------------|
D|--11----9----6--------11----9----6-----------------------------------------|
A|---9----7----4---------9----7----4-----------------------------------------|
E|---------------------------------------------------------------------------|

  Slow part
e|---5----7----44-4--- -------12----------12----------12----------12---------|
B|---5----9----55-5--- ----14----14----14----14----14----14----14----14------|
G|---6----9----66-6--- -14----------14----------14----------14---------- x2 -|
D|---7----9----66-6--- ------------------------------------------------------|
A|---7----7----44-4--- ------------------------------------------------------|
E|---5---------------- ------------------------------------------------------|

e|---------12----------12----------12----------12----------------------------|
B|------14----14----14----14----14----14----14----14-------------------------|
G|---13----------13----------13----------13----------- x2 -------------------|
D|---------------------------------------------------------------------------|
A|---------------------------------------------------------------------------|
E|---------------------------------------------------------------------------|

e|---------12----------12----------12-----------12---------------------------|
B|------14----14----14----14----14----14-----14----14------------------------|
G|---14----------14----------14----------14----------- x2 -------------------|
D|---------------------------------------------------------------------------|
A|---------------------------------------------------------------------------|
E|---------------------------------------------------------------------------|

e|---------12----------12----------12----------12----------------------------|
B|------14----14----14----14----14----14----14----14-------------------------|
G|---13----------13----------13----------13----------- x2 -------------------|
D|---------------------------------------------------------------------------|
A|---------------------------------------------------------------------------|
E|---------------------------------------------------------------------------|

Outro

Part 1: Verse chord pattern   x2
Part 2: Intro Tabs            x2
Добавлено: 28.06.2013
Другие материалы по этой песне:
  • Аккорды и текст

Страница создана 28.06.2013
http://primanota.ru/the-wombats/addicted-to-the-cure-chords.htm
Привет, Гость.
Предлагаем пройти революционный курс по гитаре.
Подарок от PrimaNota.Ru, забирай!