PrimaNota.ru - самый крупный в мире бесплатный архив песенных текстов, аккордов, табулатур и нот


The Wombats - A Guide To Love Loss And Desperation - бас-таба, видео

Регистрация Запомнить меня
Войти через:  Facebook Google Twitter Vk Yandex Mail.ru

The Wombats - A Guide To Love Loss And Desperation - бас-таба, видео

Печатать
Просмотров: 94
Kill The Director
intro
D--9-9--6-6--9-9--8-8--9-9--6-6--8-8--6-6
A   x2
E
Verse1
E|-------------------------------------------------------------------------|
D|----------9----8-------------9----8----4-6-6--4-6-6--4-6-6--4-6-6--6-9-9-|
A|--------------------7----------------------------------------------------|
E|-0-----------------------------------------------------------------------|

G|-----------------------11-11---------------------------------------------|
D|-9-11-11--11-13-13--13--------4-6-6--4-6-6--4-6-6--4-6-6--6-9-9--9-11-11-|
A|-------------------------------------------------------------------------|
E|-------------------------------------------------------------------------|

G|-------------11----------------------------------------------------------|
D|-11--13--13--------------------------------------------------------------|
A|-------------------------------------------------------------------------|
E|-------------------------------------------------------------------------|
Chorus
G|-------------------------------------------------------------------------|
D|-------------------------------------------------------------------------|
A|-7-7-7-7-7-7-7-7-6-6-6-6-6-6-6-6-----------------9-9-9-9-9-9-9-9---------|
E----------------------------------7-7-7-7-7-7-7-7-------------------------|

G--------------------------------------------------------------------------|
D---------------9-9-9-9-11-11-11-11----------------------------------------|
A7-7-7-7-7-7-7-7----------------------------------9-9-9-9-9-9-9-7-7-7-7-7-7|
E----------------------------------7-7-7-7-7-7-7-7-------------------------|
Verse 2
With thew angst of a teenage band
Добавлено: 24.11.2013
Другие материалы по этой песне:
  • Аккорды и текст

Страница создана 24.11.2013
http://primanota.ru/the-wombats/a-guide-to-love-loss-and-desperation-chords.htm
Привет, Гость.
Предлагаем пройти революционный курс по гитаре.
Подарок от PrimaNota.Ru, забирай!