PrimaNota.ru - самый крупный в мире бесплатный архив песенных текстов, аккордов, табулатур и нот


Wohlstandskinder - Das Grau Unserer Zeit - аккорды и текст, таба, видео

Регистрация Запомнить меня
Войти через:  Facebook Google Twitter Vk Yandex Mail.ru

Wohlstandskinder - Das Grau Unserer Zeit - аккорды и текст, таба, видео

Печатать
Просмотров: 90
Das Grau Unserer Zeit
Wohlstandskinder
[2x Intro:]
   A      E      F#m     C#m    (Von A bis F#m clean und das C#m dann mit Distortion)
(Kazoo:)
E|--------------------------------------------------------------------|
H|----------------2---------------------------------------------------|
G|---2-2--4-----------4--2-1------------------------------------------|
D|---------------------------------------2--4-4--6-7-6----------------|
A|--------------------------------------------------------------------|
E|--------------------------------------------------------------------|


[Verse 1:]
             A                    E
Ich hab heut' morgen geseh'n, wie die Sonne aufging,
        F#m                  C#m
Sie war schwarz und duester anzuschau'n.
       A                    E
Wo der Hass und die Angst vor'm Versagen regiert,
       F#m                      C#m
Ist es schwer auf die Vernunft zu bau'n.
        A                                  E
Wer sie einsetzt, gilt als Traeumer, doch wenn alle "traeumen" wuerden,
              D                 E                     D A
Waer man schon laengst aus dem realen Alptraum der Dummheit erwacht.


[Chorus 1:]
     A         E        F#m             D
Lasst uns trinken Brueder und Schwestern dieser Welt,
       A         B      E D C#m B A
Auf die Buerokratie, die hier regiert!
        A           E          F#m              D
Und ein Hoch auf alle die, die nur trinken und nichts tun!
          A          B                E  D  C#m A
Lasst uns trinken, auf dass das Grau unsrer Zeit nicht eskaliert.


[2x Intro:]
   A      E      F#m     C#m    (Von A bis F#m clean und das C#m dann mit Distortion)
(Kazoo:)
E|--------------------------------------------------------------------|
H|----------------2---------------------------------------------------|
G|---2-2--4-----------4--2-1------------------------------------------|
D|---------------------------------------2--4-4--6-7-6----------------|
A|--------------------------------------------------------------------|
E|--------------------------------------------------------------------|


[Verse 2:]
    A                            E
Ich hab heut' Abend geseh'n, wie der Tag zu ende ging,
        F#m                 C#m
Mit nem erleichterten Laecheln im Gesicht. Er verstand nicht
      A                            E
Diese Angst vor dem Tier, das nunmal in uns steckt,
       F#m                         C#m
Diesen verzweifelten Kampf gegen uns selbst.
           A                              E
Wir sollten uns dem endlich stellen, was uns soviel Sorgen macht,
           F#m                    D
Die Loesung liegt in uns und wer sie uebersieht
     E        D   A
Hat sich selber umgebracht!


[Chorus 2:]
     A         E        F#m             D
Lasst uns Fi**en Brueder und Schwestern dieser Welt,
       A         B      E D C#m B A
Ein Fick auf die Buerokratie, die hier regiert!
        A           E          F#m              D
Und ein hoch auf alle die, die nur lieben und es sp
Добавлено: 07.09.2013
Другие материалы по этой песне:
  • Аккорды и текст

Страница создана 04.06.2012
http://primanota.ru/the-wohlstandskinder/das-grau-unserer-zeit-chords.htm
Привет, Гость.
Предлагаем пройти революционный курс по гитаре.
Подарок от PrimaNota.Ru, забирай!