PrimaNota.ru - самый крупный в мире бесплатный архив песенных текстов, аккордов, табулатур и нот


The Winery Dogs - Elevate - таба, бас-таба, видео

Регистрация Запомнить меня
Войти через:  Facebook Google Twitter Vk Yandex Mail.ru

The Winery Dogs - Elevate - таба, бас-таба, видео

Печатать
Просмотров: 164
Авторы музыки: Richie Kotzen, Billy Sheehan, Mike Portnoy
Авторы текста: Richie Kotzen
-------------------------------------------------------------------------------
                             ELEVATE (SOLO) - The Winery Dogs
-------------------------------------------------------------------------------
Tabbed by: Leonsuper

e|-12------------12---------------------------------------------------|
B|-15b17--13h14-----14-----------------12--15h14h12-------------------|
G|----------------------14p11------12----------------14h11------------|
D|-----------------------------14---------------------------14h12-----|
A|-----------------------------------------------------------------14-|
E|--------------------------------------------------------------------|


e|---------------------17---------------------------------------------------|
B|-------------15--17------17--15----------------------------------------15-|
G|-----12--14----------------------14p12-----------------------------16-----|
D|-14-------------------------------------14---------------------17---------|
A|--------------------------------------------14----------14h17-------------|
E|------------------------------------------------15--14--------------------|


e|-19------15\14--17---------15---------12-----------|
B|-----17-------------15p14------14\12------13p12p11-|
G|---------------------------------------------------|
D|---------------------------------------------------|
A|---------------------------------------------------|
E|---------------------------------------------------|


e|--------------------------------------10---------12--------|
B|-11----------------------------11h12------12h11------11\10-|
G|-----12p11------12------11h12------------------------------|
D|------------14------14-------------------------------------|
A|-----------------------------------------------------------|
E|-----------------------------------------------------------|


e|----------------------10--12--10--------------------------------|
B|-11h10------11h12h14--------------14p12p11--14p12p11--12p11-----|
G|--------12---------------------------------------------------14-|
D|----------------------------------------------------------------|
A|----------------------------------------------------------------|
E|----------------------------------------------------------------|


e|---------------10---------10--12--10---------12--14--12\11\10--14--15p14-----------------19--22-|
B|-----11h12h14------14p12--------------12b14-------------------------------17\15--19--20---------|
G|-12---------------------------------------------------------------------------------------------|
D|------------------------------------------------------------------------------------------------|
A|------------------------------------------------------------------------------------------------|
E|------------------------------------------------------------------------------------------------|


| /  slide up
| \  slide down
| h  hammer-on
| p  pull-off
| ~  vibrato
| +  harmonic
| x  Mute note
Добавлено: 04.08.2014
Другие материалы по этой песне:
  • Аккорды и текст

Страница создана 14.04.2014
http://primanota.ru/the-winery-dogs/elevate-chords.htm
Привет, Гость.
Предлагаем пройти революционный курс по гитаре.
Подарок от PrimaNota.Ru, забирай!