PrimaNota.ru - самый крупный в мире бесплатный архив песенных текстов, аккордов, табулатур и нот


The Wild - Slow Burn - таба, видео

Регистрация Запомнить меня
Войти через:  Facebook Google Twitter Vk Yandex Mail.ru

The Wild - Slow Burn - таба, видео

Печатать
Просмотров: 126
Уроки эстрадного вокала в Санкт-Петербурге
Artist: The Wild
Song: Slow Burn

Tuning:  Standard

Listen to the song for the rhythm.

Intro/Chorus:
    A         A            A    D           A       A         A   G G          
e|----------------------------------------------------------------3-3---------|
B|--x-x-x-x-x-x-x-x-x----x-x-x-x/x-x-x---x-x-x-x-x-x-x-x----x-x-x-3-3---------|
G|--2-2-2-2-2-2-2-2-x----2-2-2-7/2-2-x---2-2-2-2-2-2-2-x----2-2-2-0-0---------|
D|--2-2-2-2-2-2-2-2-x----2-2-2-7/2-2-x---2-2-2-2-2-2-2-x----2-2-2-0-0---------|
A|--0-2-3-0-3-0-x-0-x----0-3-0-5/x-0-x---0-3-0-3-0-x-0-x----0-3-0-x-x---------|
E|--------------3----------------3-----------------3--------------3-3---------|

Verse 1:                                                            (end riff)
(--------------------Palm Muted A5 Chord---------------------)  e|---------------|
                                                                B|--x-x-x-x/x-x--|
Slow burn darling you know, wherever you are, wherever I'm at   G|--2-2-2-7/2-2--|
                                                                D|--2-2-2-7/2-2--|
                                                                A|--0-3-0-5/x-0--|
                                                                E|----------3----|

                                                                    (end riff)
(--------------------Palm Muted A5 Chord---------------------)  e|--------3-3----|
                                                                B|--x-x-x-3-3----|
I've got the feeling love down on the river,                    G|--2-2-2-0-0----|
                          We try check out the feeling loving   D|--2-2-2-0-0----|
                                                                A|--0-3-0-x-x----|
                                                                E|--------3-3----|
Chorus: 
    A         A            A    D           A       A         A   G G          
e|----------------------------------------------------------------3-3---------|
B|--x-x-x-x-x-x-x-x-x----x-x-x-x/x-x-x---x-x-x-x-x-x-x-x----x-x-x-3-3---------|
G|--2-2-2-2-2-2-2-2-x----2-2-2-7/2-2-x---2-2-2-2-2-2-2-x----2-2-2-0-0---------|
D|--2-2-2-2-2-2-2-2-x----2-2-2-7/2-2-x---2-2-2-2-2-2-2-x----2-2-2-0-0---------|
A|--0-2-3-0-3-0-x-0-x----0-3-0-5/x-0-x---0-3-0-3-0-x-0-x----0-3-0-x-x---------|
E|--------------3----------------3-----------------3--------------3-3---------|
    Slow,                slow,           slowly down the river, slowly down the river
    Slow,                slow,           slowly down the river, slowly down the river

D    C                   (end riff)
Drawn to you  -->    e|---------------|
                     B|--x-x-x-x/x-x--|
                     G|--2-2-2-7/2-2--|
                     D|--2-2-2-7/2-2--|
                     A|--0-3-0-5/x-0--|
                     E|----------3----|

Verse 2:                                                            (end riff)
(--------------------Palm Muted A5 Chord---------------------)  e|---------------|
                                                                B|--x-x-x-x/x-x--|
Slow down darling you know,                                     G|--2-2-2-7/2-2--|
                  Whatever you aren't is whatever I've got      D|--2-2-2-7/2-2--|
                                                                A|--0-3-0-5/x-0--|
                                                                E|----------3----|

(--------------------Palm Muted A5 Chord---------------------)      (end riff)
                                                                e|--------3-3----|
                                                                B|--x-x-x-3-3----|
I've got the feeling love hot drippin bloody in mud             G|--2-2-2-0-0----|
                          I've got the fever yeah, you got it   D|--2-2-2-0-0----|
                                                                A|--0-3-0-x-x----|
                                                                E|--------3-3----|
Chorus: 
    A         A            A    D           A       A         A   G G          
e|----------------------------------------------------------------3-3---------|
B|--x-x-x-x-x-x-x-x-x----x-x-x-x/x-x-x---x-x-x-x-x-x-x-x----x-x-x-3-3---------|
G|--2-2-2-2-2-2-2-2-x----2-2-2-7/2-2-x---2-2-2-2-2-2-2-x----2-2-2-0-0---------|
D|--2-2-2-2-2-2-2-2-x----2-2-2-7/2-2-x---2-2-2-2-2-2-2-x----2-2-2-0-0---------|
A|--0-2-3-0-3-0-x-0-x----0-3-0-5/x-0-x---0-3-0-3-0-x-0-x----0-3-0-x-x---------|
E|--------------3----------------3-----------------3--------------3-3---------|
    Slow,                slow,           slowly down the river, slowly down the river
    Slow,                slow,           slowly down the river, slowly down the river

D    C                   (end riff)
Drawn to you  -->    e|---------------|
                     B|--x-x-x-x/x-x--|
                     G|--2-2-2-7/2-2--|
                     D|--2-2-2-7/2-2--|
                     A|--0-3-0-5/x-0--|
                     E|----------3----|


(Solo)   A  A  Em  G  A  G  D  A  A  Em  G  A

Chorus: 
    A         A            A    D           A       A         A   G G          
e|----------------------------------------------------------------3-3---------|
B|--x-x-x-x-x-x-x-x-x----x-x-x-x/x-x-x---x-x-x-x-x-x-x-x----x-x-x-3-3---------|
G|--2-2-2-2-2-2-2-2-x----2-2-2-7/2-2-x---2-2-2-2-2-2-2-x----2-2-2-0-0---------|
D|--2-2-2-2-2-2-2-2-x----2-2-2-7/2-2-x---2-2-2-2-2-2-2-x----2-2-2-0-0---------|
A|--0-2-3-0-3-0-x-0-x----0-3-0-5/x-0-x---0-3-0-3-0-x-0-x----0-3-0-x-x---------|
E|--------------3----------------3-----------------3--------------3-3---------|
    Slow,                slow,           slowly down the river, slowly down the river
    Slow,                slow,           slowly down the river, slowly down the river

    A         A            A    D           A       A         A   G G          
e|----------------------------------------------------------------3-3---------|
B|--x-x-x-x-x-x-x-x-x----x-x-x-x/x-x-x---x-x-x-x-x-x-x-x----x-x-x-3-3---------|
G|--2-2-2-2-2-2-2-2-x----2-2-2-7/2-2-x---2-2-2-2-2-2-2-x----2-2-2-0-0---------|
D|--2-2-2-2-2-2-2-2-x----2-2-2-7/2-2-x---2-2-2-2-2-2-2-x----2-2-2-0-0---------|
A|--0-2-3-0-3-0-x-0-x----0-3-0-5/x-0-x---0-3-0-3-0-x-0-x----0-3-0-x-x---------|
E|--------------3----------------3-----------------3--------------3-3---------|
    Slow,               (****Pause****), slowly down the river, slowly down the river
    Slow,                slow,           slowly down the river, slowly down the river

    A         A            A    D           A       A         A   G G          
e|----------------------------------------------------------------3-3---------|
B|--x-x-x-x-x-x-x-x-x----x-x-x-x/x-x-x---x-x-x-x-x-x-x-x----x-x-x-3-3---------|
G|--2-2-2-2-2-2-2-2-x----2-2-2-7/2-2-x---2-2-2-2-2-2-2-x----2-2-2-0-0---------|
D|--2-2-2-2-2-2-2-2-x----2-2-2-7/2-2-x---2-2-2-2-2-2-2-x----2-2-2-0-0---------|
A|--0-2-3-0-3-0-x-0-x----0-3-0-5/x-0-x---0-3-0-3-0-x-0-x----0-3-0-x-x---------|
E|--------------3----------------3-----------------3--------------3-3---------|
    Slow,                slow,           slowly down the river, slowly down the river
    Slow,                slow,           slowly down the river, slowly down the river

D    C                   (end riff)
Drawn to you  -->    e|---------------|
                     B|--x-x-x-x/x-x--|
                     G|--2-2-2-7/2-2--|
                     D|--2-2-2-7/2-2--|
                     A|--0-3-0-5/x-0--|
                     E|----------3----|
Добавлено: 18.05.2016
Другие материалы по этой песне:
  • Аккорды и текст

Страница создана 18.05.2016
http://primanota.ru/the-wild/slow-burn-chords.htm
Привет, Гость.
Предлагаем пройти революционный курс по гитаре.
Подарок от PrimaNota.Ru, забирай!