PrimaNota.ru - самый крупный в мире бесплатный архив песенных текстов, аккордов, табулатур и нот


The Wild Feathers - Hard Wind - таба, видео

Регистрация Запомнить меня
Войти через:  Facebook Google Twitter Vk Yandex Mail.ru

The Wild Feathers - Hard Wind - таба, видео

Печатать
Просмотров: 152
-------------------------------------------------------------------------------
                             Hard Wind - The Wild Feathers
-------------------------------------------------------------------------------
Tabbed by: JacobWilliam13

Tuning: Standard

Intro/ Verse Riff: 
                  
e---------------------------------------------|
B---------------------------------------------|
G--------------------------2------------------|
D--7-------5-------4-------2------------------|
A--0-0-0-0-0-0-0-0-0-0-0-0-0------------------|
E---------------------------------------------|


Intro Riff
Hard wind, no matter where I turn
Intro Riff
Hard wind, like a wildfire burns
Intro Riff
Cold eyes lookin' back at where I'm from
Intro Riff
Western skies have been chasin' down the sun

 
F                        G
I sold my ticket to this one-track mind
F                             G
I see for miles 'cause I have opened my eyes

 
e-----------------------------------------------------|
B-----------------------------------------------------|This is also the
G------------------------------5-7-7b8r5--------------|
D--5h7-7---5h7-7---5h7-7---5h7------------7-----------|rhythm part during the solos
A--0---0---0---0---0---0---0--------------------------|
E-----------------------------------------------------|


Intro Riff
Windows down and the street lights aglow
Intro Riff
Pain clouds the stories of my home
Intro Riff
White smoke comin' to set me free
Intro Riff
I'm hollow I got nothing left to bleed

 
F                        G
I sold my ticket to this one-track mind
F                             G
I see for miles 'cause I have opened my eyes
F                           G
I kissed the interstate and left it all behind

Solo: This was the basic structure of how he played it live. 
 
e------------------------------------------------------------------------17---|
B--8----8--------------------------------------------------------------17--20b|
G--7b9~~~-9r7-5~-7-5-7/9--7-9/11-9-11/12~12~12/14~14~14/17~17~17/19~~19b------|
D-----------------------------------------------------------------------------|
A-----------------------------------------------------------------------------|
E-----------------------------------------------------------------------------|

e-17--17---------------------17-20b22r20----------------------|
B--20br20br20br20~~~~---20-17---------------------------------|
G-------------------------------------------------------------| 
D-------------------------------------------------------------|
A-------------------------------------------------------------|
E-------------------------------------------------------------|
 
e-17h20p17----------------------------------------------------|
B----------20b22r20--19br19br--19-17--------------------------|
G----------------------------------19-17-17h19~~~-------------| 
D-------------------------------------------------------------|
A-------------------------------------------------------------|
E-------------------------------------------------------------|


Dm                        Am
I tried to tell myself to let it go
Dm                           Am
This weight I carry's gettin' hard to hold
Dm                           F            G
One thing's for certain, I'm never comin' back

No Chord
Ah Ah Ah Ah

Intro Riff
Ah Ah Ah Ah

Solo:
 
e-----------------------------------------------------|
B-10------12-------13-------13h15p13----13------------|
G-12b14~~-14b16~~--15b17~~------------14--14----------| 2X
D-----------------------------------------------------|
A-----------------------------------------------------|
E-----------------------------------------------------|

e-----------------------------------------------------|
B-10------12-------13------15---17--------------------|
G-12b14~~-14b16~~--15b17~~-17~~-19~~~~----------------| 1X
D-----------------------------------------------------|
A-----------------------------------------------------|
E-----------------------------------------------------|
Outro: 4X
 
e-----------------------------------------------------|
B-----------------------------------------------------|
G------------------------------5-7-7b8r5--------------|
D--5h7-7---5h7-7---5h7-7---5h7------------7-----------|
A--0---0---0---0---0---0---0--------------------------|
E-----------------------------------------------------|

Then:
 
e----------
B----------
G----------
D--5h7-7---
A--0---0---
E----------



************************************

| /   slide up
| \   slide down
| h   hammer-on
| p   pull-off
| ~   vibrato
| +   harmonic
| x   Mute note
| b   Bend
| pb  Pre-bend
| br  Bend release
| pbr Pre-bend release
| brb Bend release bend

************************************
Добавлено: 06.07.2015
Другие материалы по этой песне:
  • Аккорды и текст

Страница создана 06.07.2015
http://primanota.ru/the-wild-feathers/hard-wind-chords.htm
Привет, Гость.
Предлагаем пройти революционный курс по гитаре.
Подарок от PrimaNota.Ru, забирай!