PrimaNota.ru - самый крупный в мире бесплатный архив песенных текстов, аккордов, табулатур и нот


The Wild Feathers - Hard Times - аккорды и текст, таба, видео

Регистрация Запомнить меня
Войти через:  Facebook Google Twitter Vk Yandex Mail.ru

The Wild Feathers - Hard Times - аккорды и текст, таба, видео

Печатать
Просмотров: 141
Уроки эстрадного вокала в Санкт-Петербурге
Hard Times
The Wild Feathers
I bought this band's album basically directly after it came out and I am still addicted 
to it.
Intro:
            D Dsus4 D            Em7                    G                      D
e-----------2--3--2-----------0--3-----3----------------3----3------------0----2-2---------|
B-----3-0-3-3--3--3-------3-0----3-----3--3------3-0-3--3----3---3------3---3--3-3---------|
G-2h4-------2--2--2---2h4--------0--------0--2h4--------0--------0--2h4--------2-2---------|
D-----------0--0--0--------------2--2-------------------0--0---0---------------0-0---------|
A--------------------------------2----------------------2----------------------------------|
E--------------------------------0----------------------3----------------------------------|
D           Em7                G                                  D
Every wind, that blows my way, picks me up easy I don't carry the weight
D                     Em7                    G                                  D
And everywhere Justin turned around, put his back to the middle halfway in then down
Chorus X 2
D                Em7                       G                              D     Dsus4  D
Hard times (hard times, hard times) Like a freight train humming down the line
D                       Em7           G                                  D
I run too fast, I can't keep up, well timing is everything but its never enough
D                         Em7             G                                         D
There's a sleepless and a candle lit, but I shouldn't let em' in but I can't resist it
Chorus X 2
Bridge:
D              C       G     D             C         G               D
Well I've been waiting on my money, and my hands are broken from the cold,
D         C         G          D                    C              G       D
I'm gonna find me a day that's sunny, Because these hard times are getting old
Solo: (I'll add this at a later date)
D                     Em7                                    G                               D
Dog won't bark and my rooster won't even crow no more, I got hard times and there coming 
for more
D                              Em7                         G                              D
Tried to shine my shoes before you cut me loose, I got the in too deep no way out 
running blues
Chorus X 4
Outro:
D, D9, D, D9, D D9 (repeats over and over)
Here are the parts played over top of it - listen to the end to piece this together. 
this is a basic shell
but the parts are there.
e------------------------------------------------------------------------------------------|
B-/10--10--8--7-8-7-8-7-7------------------------------------------------------------------|
G-/11--11--9--7-7-7-7----------------------------------------------------------------------|
D---------------------------------------------3--0--3--0-----------------------------------|
A------------------------------------------------------------------------------------------|
E------------------------------------------------------------------------------------------|
Great band and I hope this tab helps.  Let me know of any corrections or suggestions on 
the solo.  I will work
on the solo and see what I can come up with.
Thanks,
Jifigz
Добавлено: 12.05.2014
Другие материалы по этой песне:
  • Аккорды и текст

Страница создана 12.05.2014
http://primanota.ru/the-wild-feathers/hard-times-chords.htm
Привет, Гость.
Предлагаем пройти революционный курс по гитаре.
Подарок от PrimaNota.Ru, забирай!