PrimaNota.ru - самый крупный в мире бесплатный архив песенных текстов, аккордов, табулатур и нот


The Whitest Boy Alive - Inflation - таба, бас-таба, видео

Регистрация Запомнить меня
Войти через:  Facebook Google Twitter Vk Yandex Mail.ru

The Whitest Boy Alive - Inflation - таба, бас-таба, видео

Печатать
Просмотров: 231
THE WHITEST BOY ALIVE
INFLATION


Tabbed by Jesper Petersen

Intro

e|---------------------------------------------|
B|-----9-8---6--------6------9-8-----------6---|
G|---------------8-----------------8---8-------|
D|---------------------------------------------|
A|---8-----8—--8----8------8-----8---8---8-----|
E|---------------------------------------------|

e|---------------------------------6-----------|
B|----9-8---6-------6------9-8---9---6---------|
G|--------------8------------------------------|
D|---------------------------------------------|
A|---8----8---8----8------8----8---------------|
E|---------------------------------------------|

Repeat twice, first without bass, second with bass.

e|------------------------------------------------------|
B|---4--(4)------------4--(4)--------4--(4)-------------|
G|-----6---5---3---1-----6---5---3-----6----5---3---1~--|
D|------------------------------------------------------|
A|------------------------------------------------------|
E|------------------------------------------------------|

Verse 1 

First part bass only, but end with.

e|---------13---|
B|------13------|
G|---13---------|
D|--------------|
A|--------------|
E|--------------|

Second part, strum this chord.

e|---8---|
B|---9---|
G|---8---|
D|--10---|
A|-------|
E|-------|


Interlude

e|--------------------------------------------|
B|--------------------------------------------|
G|---13-12-10-8-10------8-6-5-3-5------8/10---|
D|--------------------------------------------|
A|---11-10--8-6--8------6-4-3-1-3------6/8----|
E|--------------------------------------------|


Verse 2

Open with the same chord as in verse 1. When he sings “Only one way …”, play the following chords.

e|---10----------------6-------|
B|---11---10---8---8---8---6---|
G|---10---10---8---8---7---6---|
D|---12----8---6---8---8---6---|
A|---10-----------10-------8---|
E|-----------------------------|

Play the interlude once

Bridge

e|----8--------11~-------13-------|
B|----9-----8--------------13-----|
G|----8----------------------13---|
D|---10---------------------------|
A|--------------------------------|
E|--------------------------------|

Play the intro twice, but last time play this instead.

e|-------------------------------------|
B|----9-8---6-------6------9--11--13---|
G|--------------8----------------------|
D|-------------------------------------|
A|--(8)--------------------------------|
E|-------------------------------------|

Outro

e|------------------------------------------------------|
B|---4--(4)------------4--(4)--------4--(4)-------------|
G|-----6---5---3---1-----6---5---3-----6----5---3---1~--|
D|------------------------------------------------------|
A|------------------------------------------------------|
E|------------------------------------------------------|

e|--------------------------------|
B|--------------------------------|
G|-----1---1----------------------|
D|---3---1------------------------|
A|------------3---1---------------|
E|-------------------4---3---1~---|
Добавлено: 23.02.2012
Другие материалы по этой песне:
  • Аккорды и текст

Страница создана 23.02.2012
http://primanota.ru/the-whitest-boy-alive/inflation-chords.htm
Привет, Гость.
Предлагаем пройти революционный курс по гитаре.
Подарок от PrimaNota.Ru, забирай!