PrimaNota.ru - самый крупный в мире бесплатный архив песенных текстов, аккордов, табулатур и нот


The Whitest Boy Alive - Gravity - таба, бас-таба, видео

Регистрация Запомнить меня
Войти через:  Facebook Google Twitter Vk Yandex Mail.ru

The Whitest Boy Alive - Gravity - таба, бас-таба, видео

Печатать
Просмотров: 301
Уроки эстрадного вокала в Санкт-Петербурге
THE WHITEST BOY ALIVE 
GRAVITY

Tabbed by Jesper Petersen

Intro

Bm7 | C#m7 | A |    | G | A | Bm7 |    | G | A | Bm7 |

e|----------------------------|     e|-------------3--5--7---|
B|---3--5-(5)---(3)-(5)-(7)---|     B|---3--5-(5)--3--5--7---|
G|---2--4--6-----4---6---7----|x3   G|---2--4--6---4--6--7---|x1
D|---4--6--7-----5---7---9----|     D|---4--6--7---5--7--9---|
A|----------------------------|     A|-----------------------|
E|----------------------------|     E|-----------------------|

Verse 1  Only bass

Interlude

e|-------------------------------------------------|
B|---12--10--8---7-7-5-7---12--10------------------|
G|---11--11--7-------------11--11--6-6-7-9--6-6-6--|
D|---12--12--9-------------12--12------------------|
A|-------------------------------------------------|
E|-------------------------------------------------|

e|-------------------7---|
B|-------------------7---|
G|---6-6-7-9--6-6-6--7---|
D|-------------------7---|
A|-------------------9---|
E|-------------------7---|

Verse 2  Strum these chords

Bm7 | Dmaj7 | G | Bm7 |

e|---7---5---3---2---|
B|---7---7---3---3---|
G|---7---6---4---2---|
D|---9---7---5---4---|
A|-------------------|
E|-------------------|



Solo

e|-----------------------------|
B|---7~------------------------|
G|------9-7-6~---6h7p6---------|x2
D|---------------------9-7-9---|
A|-----------------------------|
E|-----------------------------|

e|-------------77-----------------------|
B|---1010--77------77---1010--77----7---|
G|--------------------------------9-----|
D|--------------------------------------|
A|--------------------------------------|
E|--------------------------------------|

e|---10p9p7--------------------------------------|
B|----------10-8-7-10---10---10-------------12---|
G|--------------------7----6--------------11-----|
D|------------------------------9---7/9----------|
A|-----------------------------------------------|
E|-----------------------------------------------|

Verse 3
Same as verse 2  However when he sings YOU ONLY WANT TO BE WITH HER ..., you can 
play these chords.

Gmaj7 | D | Em7 | Dmaj7 |

e|------------------|
B|---12--10--8--7---|
G|---11--11--7--6---|
D|---12--12--9--7---|
A|------------------|
E|------------------|

Bridge

Play these chords.

e|---10------7--5----5--7--3--5-----9--7--7--9--9--7---7---|
B|---12--10--8--7----7--8--3--5----10--8--8-10-10--8---8---|
G|---11--11--7--6----6--7--4--6-----9--7--7--9--9--7---7---|
D|---12--12--9--7----7--9--5--7----11--9--9-10-11--9---9---|
A|-----------------------------------------------------7---|
E|---------------------------------------------------------|

Outro
Play intro followed by the interlude twice and then you are done!
Добавлено: 20.05.2012
Другие материалы по этой песне:
  • Аккорды и текст

Страница создана 12.03.2012
http://primanota.ru/the-whitest-boy-alive/gravity-chords.htm
Привет, Гость.
Предлагаем пройти революционный курс по гитаре.
Подарок от PrimaNota.Ru, забирай!