PrimaNota.ru - самый крупный в мире бесплатный архив песенных текстов, аккордов, табулатур и нот


The Whitest Boy Alive - Golden Cage - таба, бас-таба, видео

Регистрация Запомнить меня
Войти через:  Facebook Google Twitter Vk Yandex Mail.ru

The Whitest Boy Alive - Golden Cage - таба, бас-таба, видео

Печатать
Просмотров: 259
Уроки эстрадного вокала в Санкт-Петербурге
This is only the basic song structure, I don't this this is 100% accurate, but you can 
out the rest based on this. This was based on the previous tabs posted here.

Please post other tabs by the whitest boy alive, specifically: Fireworks, done with you, 
you and inflation; my guitar playing isn't good and I haven't been able to find guitar 
for these songs.

I hope this is useful for you.

Greets.

The Whitest Boy Alive
Golden Cage

Standard tuning

Intro (x2)
e|-----------------------------------------------------------|
B|-----------------------------------------------------------|
G|----------------9---9-11-----------------------------------|
D|---9-0-9-0-9------9--------9-0-9-0-9-----------------------|
A|--------------------------------------------9---7----------|
E|----------------------------------------777---5------------|

e|---------------------------------------------------------|
B|------------------------------------------8-8-8---8------|
G|----------------9---9-11------------------7-7-7---7------|
D|---9-0-9-0-9------9--------9-0-9-0-9------9-9-9---9------|
A|------------------------------------------7-7-7---7------|
E|---------------------------------------------------------|

Verse
e|----------------------|
B|--8-----7-------------|
G|--7-----7-----6-------|
D|--9-----7-----5-------|
A|--7-----5-----7-------|
E|--------------5-------|

Funky outro:
e|-----------------------------------------------------|
B|-----------------------------------------------------|
G|----9----------9--------------11----7------6-----7-4-|
D|---------9----------9--------------------------------|
A|--7---0----0-7---0----7-0-7/9---0-5---0--4---0-5-----|
E|-------7----------7----------------------------------|

e|-----------------------------------------------------------|
B|-----------------------------------------------------------|
G|----9----------9--------------11----7------6---6-----6-7--4|
D|---------9----------9--------------------------------------|
A|--7---0----0-7---0----7-0-7/9---0-5---0--4---4---4---------|
E|-------7----------7----------------------------------------|

e|---------------------------------------------------------------------7~----10~--7-14~|
B|--------------------------------------------------------------7~---------------------|
G|----9----------9--------------11----7------6-----7-----------------------------------|
D|---------9----------9-------------------------------------7h9----7h9---7h9-----------|
A|--7---0----0-7---0----7-0-7/9---0-5---0--4---0-5---5---7~----------------------------|
E|-------7----------7------------------------------------------------------------------|

This city is no longer mine:
e|-----------------------------|
B|--8--8--8--8---7--7--7--10-8~|
G|--7--7--7--7---7--7--7--9--7~|
D|--9--9--9--9---7--7--7--11-9~|
A|--7--7--7--7---5--5--5--9--7~|
E|-----------------------------|

Verse end:
e|-----------------------------------------------------|
B|-----------------------------------------------------|
G|-----------------------------14-14~------------------|
D|---16~--16~--16~~---16~16~---16-16~------------------|
A|-----------------------------------------------------|
E|-----------------------------------------------------|

Intro x 1 then end with

e|-----------------------------------------------------------|
B|-----------------------------------------------------------|
G|----------------9---9-11-----------------------------------|
D|---9-0-9-0-9------9--------9-0-9-0-9-----------------------|
A|--------------------------------------------9---7----------|
E|----------------------------------------777---5------------|

e|-----------------------------------------|
B|-----------------------------------------|
G|----------------9---9-11---14---16~~-----|
D|---9-0-9-0-9------9----------------------|
A|-----------------------------------------|
E|-----------------------------------------|
Добавлено: 17.04.2012
Другие материалы по этой песне:

Страница создана 05.04.2012
http://primanota.ru/the-whitest-boy-alive/golden-cage-chords.htm
Привет, Гость.
Предлагаем пройти революционный курс по гитаре.
Подарок от PrimaNota.Ru, забирай!