PrimaNota.ru - самый крупный в мире бесплатный архив песенных текстов, аккордов, табулатур и нот


The Whitest Boy Alive - Figures - таба, видео

Регистрация Запомнить меня
Войти через:  Facebook Google Twitter Vk Yandex Mail.ru

The Whitest Boy Alive - Figures - таба, видео

Печатать
Просмотров: 124
Figures
Whitest Boys Alive
Open to any suggestions, corrections etc.


the tuning is not exactly in standard but close
Intro/Verse

e-------x------0----------x--x---x--x---0--------------------|
B---19--x--19--0----------x--19--x--19--0--------------------|
G---x---x--x---0---0---0--x--x---x--x---0---0---0---0--------|
D---19--x--19--0---0---0--x--19--x--19--0---0---0---0--------|
A---17--x--17--0---19--0--x--17--x--17--0---19--0---19-------|
E---x---x--x---0---0---0--x--x---x--x---0---0---0---0--------|
    ^   v  ^   v   ^   v  ^  v   ^  v   ^   v   ^  v

e---x---x--x---0----------x--x---x--x---0--------------------|
B---17--x--17--0----------x--17--x--17--0--------------------|
G---x---x--x---0---0---0--x--x---x--x---0---0---0---0--------|
D---16--x--16--0---0---0--x--16--x--16--0---0---0---0--------|
A---17--x--x---0---17--0--x--17--x--17--0---17--0---17-------|
E---x---x--x---0---0---0--x--x---x--x---0---0---0---0--------|
End intro with the strum he does with
e---x---|
B---17--|
G---x---|
D---17(or 16)--|
A---15--|
E---x---|

Break
e---0---0----|
B---0---0----|
G---0---11---|
D---16--14---|
A---14--12---|
E---x---x----|
you hear
e---0---|
B---0---|
G---0---|
D---14--|
A---14--|
E---x---|once in awhile in there

Sometimes they add like

e---0-------------------------0------------|
B---19------------------------0------------|
G---0-------------------------11-----------|
D---16-or do something like---0------------|
A---14------------------------12-----------|
E---x-------------------------x------------|

the outro is really a combination of a lot of these notes with muting
Добавлено: 30.07.2012
Другие материалы по этой песне:
  • Аккорды и текст

Страница создана 30.07.2012
http://primanota.ru/the-whitest-boy-alive/figures-chords.htm
Привет, Гость.
Предлагаем пройти революционный курс по гитаре.
Подарок от PrimaNota.Ru, забирай!