PrimaNota.ru - самый крупный в мире бесплатный архив песенных текстов, аккордов, табулатур и нот


The White Buffalo - Come Join The Murder (feat. The Forest Rangers) - аккорды и текст, таба, видео

Регистрация Запомнить меня
Войти через:  Facebook Google Twitter Vk Yandex Mail.ru

The White Buffalo - Come Join The Murder (feat. The Forest Rangers) - аккорды и текст, таба, видео

Печатать
Просмотров: 2624
Come Join The Murder
The White Buffalo
The White Buffalo & The Forest Rangers - Come join the murder
song from the finale of tv show "Sons of Anarchy"
Tabbed by: damienos

Tuning: Standard

[intro]
Dm

intro it's Dm chord with hammer-ons and pull-offs
E|--5---------5----------5---------5----|   
H|--5h6-------6p5--------6h8-------8p6--|
G|--7---------7----------7---------7----|
D|--7---------7----------7---------7----|
A|--5---------5----------5---------5----|
E|--x---------x----------x---------x----|

[verse 1]
Dm                                     Bb
There's a blackbird perched outside my window 
           F
I hear him calling 
           Am
I hear him sing 
   Dm                                Bb
He burns me with his eyes of gold to embers 
            F
He sees all my sins 
            C
He reads my soul 

[pre-chorus] 
Gm           Dm       Am       Bb
One day that bird, he spoke to me 
Gm          Dm
Like Martin Luther 
     Am  Bb  C   
Like Pericles 

[chorus] 
F             C
Come join the murder 
F             C
Come fly with black 
F              C
We'll give you freedom 
Bb              C
From the human track 
F             C
Come join the murder 
F          C
Soar on my wings 
F                C
You'll touch the hand of God 
Bb                  C
And He'll make you king 
Bb                  C
And He'll make you king 

Dm

[verse 2]
Dm                         Bb
On a blanket made of woven shadows
           F 
Flew up to heaven 
             Am
On a raven's glide 
      Dm                             Bb
These angels have turned my wings to wax now 
            F                C
I fell like Judas from grace tonight 

[pre-chorus] 
Gm      Dm       Am         Bb
On that day that he lied to me 
Gm          Dm
Like Martin Luther 
     Am  Bb  C   
Like Pericles 

[chorus] 
F             C
Come join the murder 
F             C
Come fly with black 
F              C
We'll give you freedom 
Bb              C
From the human track 
F             C
Come join the murder 
F          C
Soar on my wings 
F                C
You'll touch the hand of God 
Bb                  C
And He'll make you king 
Bb                  C
And He'll make you king 

[interlude]
F C
F C
F C
F C

[verse 3]
  Dm                            Bb
I walk among the children of my fathers 
           F                 Am
The broken wings, betrayal's cost 
     Dm                            Bb
They call to me but never touch my heart, now
     F
I am too far 
        C
I'm too lost 

[pre-chorus] 
Gm        Dm              Am       Bb
All I can hear is what he spoke to me
Gm          Dm
Like Martin Luther 
     Am  Bb  C   
Like Pericles 

[chorus] 
F             C
Come join the murder 
F             C
Come fly with black 
F              C
We'll give you freedom 
Bb              C
From the human track 
F             C
Come join the murder 
F          C
Soar on my wings 
F                C
You'll touch the hand of God 
Bb                  C
And He'll make you king 
Bb                  C
And He'll make you king 

[solo] 
                   Dm                        Bb               F                        
e|---------------------------------------|----------------|-------------------------|
B|---------------------------------------|----------------|-------------13----------|
G|---------------------------------------|-----------7-10-|-10----12/14----14-12-10-|
D|---------3h5-5/7--7-7--7--7-7--7\5-3---|-----7-10-------|-------------------------|
A|-----3h5-----------------------------3-|-5--------------|-------------------------|
E|-3h5-----------------------------------|----------------|-------------------------|

   Am                        Dm                                  Bb       
e|-------------------------|------------------------------------|-------------------|
B|-------------------------|---------------------------13 13/15-|-15---15-13--------|
G|-9---9h10p9h10p9---9h10p9|-7h9-9/10-10/12-12/14-14------------|-------------12-10-|
D|-------------------------|------------------------------------|-------------------|
A|-------------------------|------------------------------------|-------------------|
E|-------------------------|------------------------------------|-------------------|

   F                           C
e|---------------------------|------------------------|
B|---------------------------|------------------------|
G|--------------10--10-------|------------------------|
D|-12-10---------------12-10-|--------5h7-5\3---------|
A|--------10h12--------------|-12-10-----------5-3-5--|
E|---------------------------|------------------------|

[verse 4]
Dm                          Bb
So now I curse that raven's fire 
            F                 Am
You made me hate, you made me burn 
   Dm                            Bb
He laughed aloud as he flew from Eden 
           F               C
You always knew, you never learn 

[pre-chorus] 
    Gm      Dm     Am       Bb
The crow no longer sings to me 
Gm          Dm
Like Martin Luther
   Am  Bb  C 
Or Pericles 

[chorus] 
F             C
Come join the murder 
F             C
Come fly with black 
F              C
We'll give you freedom 
Bb              C
From the human track 
F             C
Come join the murder 
F          C
Soar on my wings 
F                C
You'll touch the hand of God 
Bb                  C
And He'll make you king 

F             C
Come join the murder 
F             C
Come fly with black 
F              C
We'll give you freedom 
Bb              C
From the human track 
F             C
Come join the murder 
F          C
Soar on my wings 
F                C
You'll touch the hand of God 
Bb                  C
And He'll make you king 
Bb                  C
And He'll make you king 

[outro]
F C 
F C 
F C 
F

I've done solo by ear so this could be a little different than original, but I think it's pretty close

enjoy!
Добавлено: 07.06.2015
Другие материалы по этой песне:
  • Аккорды и текст

Страница создана 04.04.2015
http://primanota.ru/the-white-buffalo/come-join-murder-chords.htm
Привет, Гость.
Предлагаем пройти революционный курс по гитаре.
Подарок от PrimaNota.Ru, забирай!