PrimaNota.ru - самый крупный в мире бесплатный архив песенных текстов, аккордов, табулатур и нот


The Whispers - And The Beat Goes On - текст песни, бас-таба, видео

Регистрация Запомнить меня
Войти через:  Facebook Google Twitter Vk Yandex Mail.ru

The Whispers - And The Beat Goes On - текст песни, бас-таба, видео

Печатать
Просмотров: 201
Авторы: William Shelby, Leon Sylvers, Stephen Shockley

The Whispers - And The Beat Goes On
Album: Imagination (1980)
Transcription by: Peter Kulcsar


Main riff (Chorus)
G|---------------------------------------|
D|------------7--------------------------|
A|------5-7-9---9-7-99----------5-7-5----|
E|-7--7----------------2-2-3--7-------5--|

Verse
G|---------------------------------------|
D|-----------------------x9--------------|
A|---------5-7-5--525257----55-----------|
E|-7--7575---------------------x---------|

Bridge
G|---------------|          G|---------------|
D|---------------|          D|---------------|
A|--------5-5h7--|3x then   A|---------------|
E|-0--x00--------|          E|-0--0--2--2----|


http://www.thewhispers.com/
Добавлено: 18.04.2012
Другие материалы по этой песне:

Страница создана 18.04.2012
http://primanota.ru/the-whispers/and-the-beat-goes-on-chords.htm
Привет, Гость.
Предлагаем пройти революционный курс по гитаре.
Подарок от PrimaNota.Ru, забирай!