PrimaNota.ru - самый крупный в мире бесплатный архив песенных текстов, аккордов, табулатур и нот


The Weirdos - Helium Bar - таба, видео

Регистрация Запомнить меня
Войти через:  Facebook Google Twitter Vk Yandex Mail.ru

The Weirdos - Helium Bar - таба, видео

Печатать
Просмотров: 83
Song:Helium Bar
Album:Action Design E.P.
Artist:The Weirdos
Genre:Punk Rock
Year:1980
Tuning:Half-Step Down (Eb,Ab,Db,Gb,Bb,Eb)

*Add A Slight Touch Of Flanger Effect
For The Entire Song.

Intro x17
Eb------------|
Bb------------|
Gb------------|
Db-8-8--8-8-8-|
Ab-8-8--8-8-8-|
Eb-6-6--6-6-6-|

Verse 1 x4
Eb---------|
Bb---------|
Gb---------|
Db-8--(8)--|
Ab-8--(8)--|
Eb-6--(6)--|

Interlude 1 x8
Eb------------|
Bb------------|
Gb------------|
Db-8-8--8-8-8-|
Ab-8-8--8-8-8-|
Eb-6-6--6-6-6-|

Verse 2 x4
Eb------------|
Bb------------|
Gb------------|
Db-8-8--8-8-8-|
Ab-8-8--8-8-8-|
Eb-6-6--6-6-6-|

Pre-Chorus 1 x8
Eb------------|
Bb------------|
Gb------------|
Db-8-8--8-8-8-|
Ab-8-8--8-8-8-|
Eb-6-6--6-6-6-|

Chorus 1
Eb---------------------------|
Bb---------------------------|
Gb---------------------------|
Db-6~--8~--6/8--6/8--6/8-6---|
Ab-6~--8~--6/8--6/8--6/8-6x6-|
Eb-4~--6~--4/6--4/6--4/6-4---|

Eb---------------------|
Bb---------------------|
Gb---------------------|
Db-6-6--5-5--3-3--1-1--|
Ab---------------------|
Eb---------------------|
   . .  . .  . .  . .

Post-Chorus 1 x8
Eb------------|
Bb------------|
Gb------------|
Db-8-8--8-8-8-|
Ab-8-8--8-8-8-|
Eb-6-6--6-6-6-|

Then
Eb-----
Bb-----
Gb-----
Db-8~~-
Ab-8~~-
Eb-6~~-

Intro x17
Verse 3 x4
Interlude 2 x8
Verse 4 x4
Interlude 3 x8

Chorus 2
Eb----------------------------------------|
Bb----------------------------------------|
Gb----------------------------------------|
Db-6~--6-6--5-5--3-3--1-1--6/8--6/8--6/8--|
Ab-6~----------------------6/8--6/8--6/8--|
Eb-4~----------------------4/6--4/6--4/6--|
       . .  . .  . .  . .

Eb-------------------------|
Bb-------------------------|
Gb-------------------------|
Db-6~--6-6--5-5--3-3--1-1--|
Ab-6~----------------------|
Eb-4~----------------------|
       . .  . .  . .  . .

Post-Chorus 2 x8
Intro x17

Solo (Rhythm)Part 1 x8
Eb---------------|
Bb---------------|
Gb-5-5--5-5-5-5--|
Db-5-5--5-5-5-5--|
Ab-3-3--3-3-3-3--|
Eb---------------|

Solo (Rhythm) Part 2 x8
Eb--------------|
Bb--------------|
Gb--------------|
Db-8-8--8-8-8-8-|
Ab-8-8--8-8-8-8-|
Eb-6-6--6-6-6-6-|

Solo (Rhythm) Part 1 x8

Outro x28
Eb--------------|
Bb--------------|
Gb--------------|
Db-8-8--8-8-8-8-|
Ab-8-8--8-8-8-8-|
Eb-6-6--6-6-6-6-|

On The 29th Time Let The Chord
Ring Out & Do A Pick Slide At
The End

Eb------|
Bb------|
Gb------|
Db-8~~X\
Ab-8~~X\
Eb-6~~X\   And Thats The End of The Song.

Key:
X\= Pick Slide
.= Palm Mute
~=Let Ring Out
/=Slide Up
()=Delayed Note

Here Is A Link To The Song In Case
You Wanna Play Along To
It: http://www.youtube.com/watch?v=fba4v2Imfhs

Also, Here Is A link The Bands Actual Website:
http://www.theweirdos.net/music.htm
Добавлено: 22.11.2013
Вам также может быть интересно:
Другие материалы по этой песне:
  • Аккорды и текст

Страница создана 22.11.2013
http://primanota.ru/the-weirdos/helium-bar-chords.htm
Привет, Гость.
Предлагаем пройти революционный курс по гитаре.
Подарок от PrimaNota.Ru, забирай!