PrimaNota.ru - самый крупный в мире бесплатный архив песенных текстов, аккордов, табулатур и нот


The Weeknd - Same Old Song - таба, бас-таба, видео

Регистрация Запомнить меня
Войти через:  Facebook Google Twitter Vk Yandex Mail.ru

The Weeknd - Same Old Song - таба, бас-таба, видео

Печатать
Просмотров: 150
Уроки эстрадного вокала в Санкт-Петербурге
Авторы: Carlo Montagnese, Juicy J, The Weeknd

The Weeknd - Same Old S0ng
No capo
Standard tuning
Enjoy!

Please listen to the song for timing and cues.

The chords are here as an easier alternative as the actual execution of the song as it may be difficult to
some people. 

Chords:       Cm           G#           F          G
              x355433        466544     133211     355433


Guitar 1: Repeat through entire song.
|---------------------------------| |---------------------------------|  
|---------------------------------| |---------------------------------| 
|---------------------------------| |---------------------------------| 
|---------------------------------| |---------------------------------| 
|-3-3----3-5-6--5--3--------------| |-3-3----3-5-6--5--3--------6-6-5-|
|--------------------6-4-4--4-4-3-| |--------------------6-4-4--------|

Guitar 2: Intro/Verse/Pre-Chorus
|---------------------------------| |-------------------6-----6-6-----|
|-----4-------4---8-8-6-8-8-8-6-4-| |-----4-------4---8---6-8-----6-8-|
|-5-5---5-5-5---5-----------------| |-5-5---5-5-5---5-----------------|
|---------------------------------| |---------------------------------|
|---------------------------------| |---------------------------------|
|---------------------------------| |---------------------------------|

Guitar 2: Chorus
|---------------------------------| |-------------------6------(2)-(2)-|
|-----4-------4---8-8-6-8---4---6-| |-----4-------4---8---6-8---4---6--|
|-5-5---5-5-5---5-----------------| |-5-5---5-5-5---5------------------|
|---------------------------------| |----------------------------------|
|---------------------------------| |----------------------------------|
|---------------------------------| |----------------------------------|

Guitar 3: Pre-chorus/Chorus/Outrow
Listen to record for timing. Palm muted.
|---|     |---|
|-1-|     |-8-|
|---|     |---|
|---|     |---|
|---|     |---|
|---| x16 |---| x16
Добавлено: 01.09.2015
Другие материалы по этой песне:
  • Аккорды и текст

Страница создана 21.11.2013
http://primanota.ru/the-weeknd/same-old-song-chords.htm
Привет, Гость.
Предлагаем пройти революционный курс по гитаре.
Подарок от PrimaNota.Ru, забирай!