PrimaNota.ru - самый крупный в мире бесплатный архив песенных текстов, аккордов, табулатур и нот


The Weeknd - Life Of The Party - таба, видео

Регистрация Запомнить меня
Войти через:  Facebook Google Twitter Vk Yandex Mail.ru

The Weeknd - Life Of The Party - таба, видео

Печатать
Просмотров: 140
-------------------------------------------------------------------------------
                             Life of The Party - The Weeknd
-------------------------------------------------------------------------------
Tabbed by: Slade532
E-mail: Tommyhdz532@Gmail.com

Tuning: Drop D 
Played Throughout Song
                 Intro/Chorus                                           Verse
e|-------------------------------------------------------------|--------------------------------|
B|-------------------------------------------------------------|-----------4--------------------|
G|-------------------------------------------------------------|--------------3-----------------|
D|--7---0-7-6---0-6-7---0-7-6---0-6-7---0-7-6---0-6-7---0-7-6--|--------------------------------|
A|-/7---0-7-6---0-6-7---0-7-6---0-6-7---0-7-6---0-6-7---0-7-6--|-0------------------------------|
D|-/7---0-7-6---0-6-7---0-7-6---0-6-7---0-7-6---0-6-7---0-7-6--|--------------------------------|


************************************

| /   slide up
| \   slide down
| h   hammer-on
| p   pull-off
| ~   vibrato
| +   harmonic
| x   Mute note
| b   Bend
| pb  Pre-bend
| br  Bend release
| pbr Pre-bend release
| brb Bend release bend

************************************
Добавлено: 24.06.2015
Другие материалы по этой песне:
  • Аккорды и текст

Страница создана 24.06.2015
http://primanota.ru/the-weeknd/life-of-party-chords.htm
Привет, Гость.
Предлагаем пройти революционный курс по гитаре.
Подарок от PrimaNota.Ru, забирай!