PrimaNota.ru - самый крупный в мире бесплатный архив песенных текстов, аккордов, табулатур и нот


The Wave Pictures - Seagulls - аккорды и текст, видео

Регистрация Запомнить меня
Войти через:  Facebook Google Twitter Vk Yandex Mail.ru

The Wave Pictures - Seagulls - аккорды и текст, видео

Печатать
Просмотров: 117
Seagulls
The Wave Pictures
Wave Pictures -  Seagulls

Intro/Fill

e|-s10-10----10---3---5--8--5--3---s-9--9---9------10------------------------|
B|-s12----12------3---7--9--7--3---s-9----9------------10--------10----------|
G|-s12------------4---7--8--7--4---s-10--------s12----------s12------12s10---|
D|---------------------------------------------------------------------------|
A|---------------------------------------------------------------------------|
E|---------------------------------------------------------------------------|


e|-s10-10----10---3---5--8--5--3---s-9--9---9---s10--------------------------|
B|-s12----12------3---7--9--7--3---s-9----9-----s12--------------------------|
G|-s12------------4---7--8--7--4---s-10---------s12--------------------------|
D|---------------------------------------------------------------------------|
A|---------------------------------------------------------------------------|
E|---------------------------------------------------------------------------|

Chords   G  D  C  G  (over and over)

I see seagulls picking at the bones of a cat
beneath the narrow brim of my Cary Grant hat
where you threw it to the beach 
from the balcony of my hotel room

the uniform that you and your friends wore 
embarassed me more than anything I'd ever seen before 
You've got a lot of nerve to come round here like this

(fill)

I see seagulls hanging, hanging in the air, 
oblivious to everything that is happening in here
you tip papers out of the drawers into piles on the floor
of my hotel room 

the uniform that you and your friends wore 
embarassed me more than anything I'd ever seen before 
You've got a lot of nerve to talk to me like that

You've got a lot of nerve
You've got a lot of nerve
You've got a lot of nerve
to talk to me like that

(solo)

I see seagulls swoop, glide, fight and sing
a cloud crosses the sun, throws a shadow over everything

you pick up an ashtray and throw it across my hotel room
I will never understand the way a change of cloths will change a man


corrections for the fill welcome
Добавлено: 09.05.2015
Другие материалы по этой песне:
  • Аккорды и текст

Страница создана 09.05.2015
http://primanota.ru/the-wave-pictures/seagulls-chords.htm
Привет, Гость.
Предлагаем пройти революционный курс по гитаре.
Подарок от PrimaNota.Ru, забирай!