PrimaNota.ru - самый крупный в мире бесплатный архив песенных текстов, аккордов, табулатур и нот


The Virginmarys - Lost Weekend - бас-таба, видео

Регистрация Запомнить меня
Войти через:  Facebook Google Twitter Vk Yandex Mail.ru

The Virginmarys - Lost Weekend - бас-таба, видео

Печатать
Просмотров: 80
-------------------------------------------------------------------------------
                             Lost Weekend - The Virginmarys
-------------------------------------------------------------------------------
Tabbed by: Seamil
E-mail: Seamil@yahoo.com

Tuning: Standard

Verse 1:
G|---------------------------------------------------------------6------------|
D|-------------------------------------------------------------------(6x)-----|
A|-5-5-5-5-5-5-5-5-5-5-5-5-5-5-5-7-----------------4-4-4-4-4-4-4-----------7--|
E|---------------------------------5-5-5-5-5-5-5-5-------------------------0--|

Chorus:
G|---------------------------------------------------------------------------|
D|---------------------------------------------------------------------------|
A|-5-5-5-5-5-5-5-5-5-5-5-5-5-5-5-7----------------------------------7-7-7-7--|
E|---------------------------------5-5-5-5-5-5-5-5-5-5-5-5-5-5-5-5-----------|

G|---------------------------------------------------------------------------|
D|--------------------------------------------------------7------------------|
A|-7-7-7-7-7-7-7-7-7-7-7-7--9---9--7-9---9-7---9---9--7-9---9--7-------------|
E|---------------------------------------------------------------------------|

G|---------------------------------------------------------------------------|
D|---------------------------------------------------------------------------|
A|-5-5-5-5-5-5-5-5-5-5-5-5-5-5-5-7----------------------------------7-7-7-7--|
E|---------------------------------5-5-5-5-5-5-5-5-5-5-5-5-5-5-5-5-----------|

G|---------------------------------------------------------------------------|
D|-----------------------------------------------7-7-9-9-11-11-11------------|
A|-7-7-7-7-7-7-7-7-7-7-7-7--9---9--7-9---9-7---9-----------------------------|
E|---------------------------------------------------------------------------|

Verse 2:
G|---------------------------------------------------------------6------------|
D|-------------------------------------------------------------------(4x)-----|
A|-5-5-5-5-5-5-5-5-5-5-5-5-5-5-5-7-----------------4-4-4-4-4-4-4-----------7--|
E|---------------------------------5-5-5-5-5-5-5-5-------------------------0--|

G|---------------------------------------------------------------------------|
D|---------------------------------------------------------------------------|
A|-7-7-7-7-7-7-7-7-7-7-7-7-7-7-7-7-------------------------------------------|
E|-0-0-0-0-0-0-0-0-0-0-0-0-0-0-0-0-------------------------------------------|

Chorus:
G|---------------------------------------------------------------------------|
D|---------------------------------------------------------------------------|
A|-5-5-5-5-5-5-5-5-5-5-5-5-5-5-5-7----------------------------------7-7-7-7--|
E|---------------------------------5-5-5-5-5-5-5-5-5-5-5-5-5-5-5-5-----------|

G|---------------------------------------------------------------------------|
D|--------------------------------------------------------7------------------|
A|-7-7-7-7-7-7-7-7-7-7-7-7--9---9--7-9---9-7---9---9--7-9---9--7-------------|
E|---------------------------------------------------------------------------|

G|---------------------------------------------------------------------------|
D|---------------------------------------------------------------------------|
A|-5-5-5-5-5-5-5-5-5-5-5-5-5-5-5-7----------------------------------7-7-7-7--|
E|---------------------------------5-5-5-5-5-5-5-5-5-5-5-5-5-5-5-5-----------|

G|---------------------------------------------------------------------------|
D|-----------------------------------------------7-7-9-9-11-11-11------------|
A|-7-7-7-7-7-7-7-7-7-7-7-7--9---9--7-9---9-7---9-----------------------------|
E|---------------------------------------------------------------------------|
Chorus:
G|---------------------------------------------------------------------------|
D|---------------------------------------------------------------------------|
A|-5-5-5-5-5-5-5-5-5-5-5-5-5-5-5-7----------------------------------7-7-7-7--|
E|---------------------------------5-5-5-5-5-5-5-5-5-5-5-5-5-5-5-5-----------|

G|---------------------------------------------------------------------------|
D|--------------------------------------------------------7------------------|
A|-7-7-7-7-7-7-7-7-7-7-7-7--9---9--7-9---9-7---9---9--7-9---9--7-------------|
E|---------------------------------------------------------------------------|

G|---------------------------------------------------------------------------|
D|---------------------------------------------------------------------------|
A|-5-5-5-5-5-5-5-5-5-5-5-5-5-5-5-7----------------------------------7-7-7-7--|
E|---------------------------------5-5-5-5-5-5-5-5-5-5-5-5-5-5-5-5-----------|

G|---------------------------------------------------------------------------|
D|---------------------------------------------------------------------------|
A|-7-7-7-7-7-7-7-7-7-7-7-7--9-9-9-9-9-9-9-9-7-7-7-7-7-7-7-7-5----------------|
E|---------------------------------------------------------------------------|
Добавлено: 22.09.2013
Другие материалы по этой песне:
  • Аккорды и текст

Страница создана 22.09.2013
http://primanota.ru/the-virginmarys/lost-weekend-chords.htm
Привет, Гость.
Предлагаем пройти революционный курс по гитаре.
Подарок от PrimaNota.Ru, забирай!