PrimaNota.ru - самый крупный в мире бесплатный архив песенных текстов, аккордов, табулатур и нот


The Virginmarys - Dead Mans Shoes - таба, видео

Регистрация Запомнить меня
Войти через:  Facebook Google Twitter Vk Yandex Mail.ru

The Virginmarys - Dead Mans Shoes - таба, видео

Печатать
Просмотров: 101
Riff 1:

E|--------------------------------------------|
B|--------------------------------------------|
G|--------------------------------------------|   (x4)
D|--------------------------------------------|
A|--------------------5--------------------5--|
E|---7-7--5-7-5-7-5-7-----7-7--5-7-5-7-5-7----|

Riff 2:

E|-------------------------------|
B|-------------------------------|
G|--------------------------7 ---|
D|---9-9--7--9--7--9--7--9--7----|
A|---9-9--7--9--7--9--7--9--5----|
E|---7-7--5--7--5--7--5--7-------|

When the vocals come in go back to Riff 1
(I am the King of Conflict...)

When Ally says
 ( I'm like a cat and a mouse...)
Go to this Riff:

E|------------------------------------------|
B|------------------------------------------|
G|------------------------------------------|
D|------------------------------------------| (x2 then back to riff 1)
A|-------------------2------------------2---|
E|---4-4--2-4-2-4-2-4---4-4--2-4-2-4-2-4----|

Chorus:

E|-----------------------------------------------------------------------|
B|-----------------------------------------------------------------------|
G|-7-7-7-7-7-7-7-7-7-7-7-7-7-7-/-16-16-16-\------------------------------|
D|-7-7-7-7-7-7-7-7-7-7-7-7-7-7-/-16-16-16-\--9-9-9-9-9-9-9-9-9-9-9-9-9-9-|
A|-5-5-5-5-5-5-5-5-5-5-5-5-5-5-/-14-14-14-\--9-9-9-9-9-9-9-9-9-9-9-9-9-9-|
E|-------------------------------------------7-7-7-7-7-7-7-7-7-7-7-7-7-7-|

                            Hey girl you're my dead man's shoes...
E|-----------------------------------------------------------------------|
B|-----------------------------------------------------------------------|
G|--------7-7-7-7-7-7-7-7-7-7-7-7-7-/-9-9-9-9-9-9-9-9-9-9-9-9-9----------|
D|-x-x-x--7-7-7-7-7-7-7-7-7-7-7-7-7-/-9-9-9-9-9-9-9-9-9-9-9-9-9----------|
A|-x-x-x--5-5-5-5-5-5-5-5-5-5-5-5-5-/-7-7-7-7-7-7-7-7-7-7-7-7-7----------|
E|-x-x-x-----------------------------------------------------------------|

When it gets to the small guitar solo after the chorus play this:

E|------------------------------------------------------------------|
B|--9b10--7--9b10--7-----------------9b10--7--9b10--7---------------|
G|-------------------7-7-7-7-7-6----------------------7-7-7-7-7-6---|
D|-------------------------------9--------------------------------9-|
A|------------------------------------------------------------------|
E|------------------------------------------------------------------|

E|------------------------------------------------------------------------|
B|--9b10--7--9b10--7-0-0-0-0-0-0-----9b10--7--9b10--7-/-12-12-12-12-12-12-|
G|-------------------7-7-7-7-7-7-6----------------------------------------|
D|---------------------------------9--------------------------------------|
A|------------------------------------------------------------------------|
E|------------------------------------------------------------------------|

Then go back to riff 1, listen to the song to get the right rhythm and repetitions, may 
be a few mistakes so let me know enjoy :)
Добавлено: 11.09.2013
Вам также может быть интересно:
Другие материалы по этой песне:
  • Аккорды и текст

Страница создана 11.09.2013
http://primanota.ru/the-virginmarys/dead-mans-shoes-chords.htm
Привет, Гость.
Предлагаем пройти революционный курс по гитаре.
Подарок от PrimaNota.Ru, забирай!