PrimaNota.ru - самый крупный в мире бесплатный архив песенных текстов, аккордов, табулатур и нот


The Vincent Black Shadow - El Monstruo - таба, видео

Регистрация Запомнить меня
Войти через:  Facebook Google Twitter Vk Yandex Mail.ru

The Vincent Black Shadow - El Monstruo - таба, видео

Печатать
Просмотров: 101
-------------------------------------------------------------------------------
                    El Monstruo - The Vincent Black Shadow
-------------------------------------------------------------------------------


Intro:
e|------------------------------------------------------|
B|-14---------------------------------------------------|
G|----13-13-14-11-11-11-13----------11------------------|
D|-------------------------14-14-14----14-13-11---------|
A|------------------------------------------------------|
E|------------------------------------------------------|


Verse:
e|------------------------------------------------------------------|
B|--9-----9-----------------------9-----9---------------------------|
G|----8-----8--------9-----11-------8-----8--------9-----11----13---|
D|------6-----6----9-----11--11-------6-----6----9-----11-----------|
A|---------------7-----9-------11--------------7-----9------11------|
E|------------------------------------------------------------------|


Prechorus:
e|----------------------------------------------------------------|
B|----------------------------------------------------------------|
G|---------------------------------9--------8--------9------------|
D|--6---------7---------6----------9--(8x)--9--(4x)--9--(4x)------|
A|--6--(16x)--7--(16x)--6--(16x)---7--------6--------7------------|
E|--4---------5---------4-----------------------------------------|

   Maybe I'm wrong, but I swear I hear a lead
e|---------------------------------------------------------------------|
B|---------------------------------------------------------------------|
G|---------------------------------------------------------------------|
D|--6-6-6-6-6-6-6-6-6-6-6-6-6-6-6-6------------------------------------|
A|----------------------------------9-9-9-9-7-7-7-7-6-6-6-6-4-4-4-4----|
E|---------------------------------------------------------------------|

e|---------------------------------------------------------------------|
B|---------------------------------------------------------------------|
G|---------------------------------------------------------------------|
D|--6-6-6-6-6-6-6-6-6-6-6-6-6-6-6-6-6-6-6-6-6-6-6-6-4-4-4-4-7-7-6-6----|
A|---------------------------------------------------------------------|
E|---------------------------------------------------------------------|


Chorus:
e|---------------------------------------------------------------------|
B|---------------------------------------------------------------------|
G|--9-------------------11---------7-----------------------------------|
D|--9--(16x)--9---------11--(16x)--7--(8x)--6--------------------------|
A|--7---------9--(16x)--9----------5--------6--(8x)--------------------|
E|------------7-----------------------------4--------------------------|


Post Chorus Riff:
e|---------------------------------------------------------------------|
B|---------------------------------------------------------------------|
G|-13-11-13-14-13-11-------11------------------------------------------|
D|-------------------14-13----14-13-11-14-13-11-10---/10-10-10-11------|
A|---------------------------------------------------------------------|
E|---------------------------------------------------------------------|


Verse:
e|---------------------------------------------------------------------|
B|---------------------------------------------------------------------|
G|--6-6-6-6---6-6--------------6-6-6-6---6-6---------------------------|
D|--6-6-6-6---6-6-7---7-7-6-6--6-6-6-6---6-6-7---7-7-9-9---------------|
A|--4-4-4-4---4-4-7---7-7-6-6--4-4-4-4---4-4-7---7-7-9-9---------------|
E|----------------5---5-5-4-4----------------5---5-5-7-7---------------|


Prechorus:
e|----------------------------------------------------------------|
B|----------------------------------------------------------------|
G|---------------------------------9--------8--------9------------|
D|--6---------7---------6----------9--(8x)--9--(4x)--9--(4x)------|
A|--6--(16x)--7--(16x)--6--(16x)---7--------6--------7------------|
E|--4---------5---------4-----------------------------------------|

e|---------------------------------------------------------------------|
B|---------------------------------------------------------------------|
G|---------------------------------------------------------------------|
D|--6-6-6-6-6-6-6-6-6-6-6-6-6-6-6-6-7-7-7-7-7-7-7-7-7-7-7-7-7-7-7-7----|
A|---------------------------------------------------------------------|
E|---------------------------------------------------------------------|

e|---------------------------------------------------------------------|
B|---------------------------------------------------------------------|
G|---------------------------------------------------------------------|
D|--6-6-6-6-6-6-6-6-6-6-6-6-6-6-6-6-6-6-6-6-6-6-6-6-4-4-4-4-7-7-6-6----|
A|---------------------------------------------------------------------|
E|---------------------------------------------------------------------|


Chorus:
e|---------------------------------------------------------------------|
B|---------------------------------------------------------------------|
G|--9-------------------11---------7--------6--------------------------|
D|--9--(16x)--9---------11--(16x)--7--(8x)--6--(8x)--------------------|
A|--7---------9--(16x)--9----------5--------4--------------------------|
E|------------7--------------------------------------------------------|


Post Chorus Riff:
e|------------------------------------------------|
B|------------------------------------------------|
G|-6-4-6-7-6-4-----4------------------------------|
D|-------------7-6---7-6-4-7-6-4-3--/3-3-3-4------|
A|------------------------------------------------|
E|------------------------------------------------|


Bridge:
e|-----------------------------------------------------------------------|
B|-----------------------------------------------------------------------|
G|-----------------------------------------------------------------------|
D|-----------------------------------------------------------------------|
A|-------4---------------4---------------4---------------4/5-5-5---------|
E|-2-5-2---2-5-1---1-5-1---1-5-2---2-5-2---2-5-1---1-5-1-----------------|

e|-----------------------------------------------------------------------|
B|-----------------------------------------------------------------------|
G|-----------------------------------------------------------------------|
D|-----------------------------------------------------------------------|
A|-------6---------------6---------------6---------------6/7-7-7---------|
E|-4-7-4---4-7-3---3-7-3---3-7-4---4-7-4---4-7-3---3-7-3-----------------|

e|-----------------------------------------------------------------------|
B|-----------------------------------------------------------------------|
G|-----------------------------------------------------------------------|
D|--------9-----------------9--------------------------------------------|
A|-7-10-7---7-10-6---6-10-6---6-10---------6------------------------7----|
E|-----------------------------------4-7-4---4-7-8---8-11-8-9-10-11------|

e|------------------------------------------------------|
B|------------------------------------------------------|
G|------------------------------------------------------|
D|--------9-----------------9---------------------------|
A|-7-10-7---7-10-6---6-10-6---6-10---------6------------|
E|-----------------------------------4-7-4---4-7--------|

e|-----------------------------------------------|
B|-----------------------------------------------|
G|-----------------------------------------------|
D|--10--10--10-10-10---10--10--10-10-10-10-11\---|
A|--10--10--10-10-10---10--10--10-10-10-10-11\---|
E|--8---8---8--8--8----8---8---8--8--8--8--9\----|
Добавлено: 22.12.2015
Другие материалы по этой песне:
  • Аккорды и текст

Страница создана 22.12.2015
http://primanota.ru/the-vincent-black-shadow/el-monstruo-chords.htm
Привет, Гость.
Предлагаем пройти революционный курс по гитаре.
Подарок от PrimaNota.Ru, забирай!