PrimaNota.ru - самый крупный в мире бесплатный архив песенных текстов, аккордов, табулатур и нот


The View - Someone Like You - таба, видео

Регистрация Запомнить меня
Войти через:  Facebook Google Twitter Vk Yandex Mail.ru

The View - Someone Like You - таба, видео

Печатать
Просмотров: 92
			     Someone Like You (COVER) - The View

Tabbed by: birrell
Email:

Tuning: STANDARD

Intro.
e|-------------------------------------------------------------------------|
B|-------------------------------------------------------------------------|
G|--------------------------------------------------------------9-12-7-5--4|
D|-------------------------------------------------------------------------|
A|-------5----------5-----------5-7-5---5-7-10-7-10s12-12b14-12------------|
E|-3-5s7--7--3--5s7---7--3--5s7-------7------------------------------------|

CHORDS:
Listen for the rhythms.

Verse Chords:
G D C C

Bridge Chords:
D G C

Chorus Chords:
G D C C (there may be a slight change on the last line chords, but i couldnt pick it out)

Break Chords:
D C G C

Little Solo Thingy

e|-------------------------------------------------------------------------|
B|-------------------------------------------------------------------------|
G|-9-7-9-7---9-7-----------------------------------------------------------|
D|-------------------5-7b8-7b8---------------------------------------------|
A|---------------5-7-------------------------------------------------------|
E|-------------------------------------------------------------------------|

not 100% sure, fiddle around with the 'solo', it sounds OK to me. If you're playin this
song on an Acoustic, use the normal chords, if on an Electric, use barr, sounds a
million times better when you do it that way. Like i said, the tab may need fine tuning, 
but i couldnt resist havin a bash. Fell in love with this song the minute i herd it!!!

Peace, Love, Music.

************************************

| /   slide up
| \   slide down
| h   hammer-on
| p   pull-off
| ~   vibrato
| +   harmonic
| x   Mute note
| b   Bend
| pb  Pre-bend
| br  Bend release
| pbr Pre-bend release
| brb Bend release bend

************************************
Добавлено: 04.11.2013
Другие материалы по этой песне:
  • Аккорды и текст

Страница создана 04.11.2013
http://primanota.ru/the-view/someone-like-you-chords.htm
Привет, Гость.
Предлагаем пройти революционный курс по гитаре.
Подарок от PrimaNota.Ru, забирай!