PrimaNota.ru - самый крупный в мире бесплатный архив песенных текстов, аккордов, табулатур и нот


The Vicious Five - The Vice In Advice - таба, видео

Регистрация Запомнить меня
Войти через:  Facebook Google Twitter Vk Yandex Mail.ru

The Vicious Five - The Vice In Advice - таба, видео

Печатать
Просмотров: 82
-------------------------------------------------------------------------------
                             The Vice In Advice - The Vicious Five
-------------------------------------------------------------------------------
Tabbed by: Joana P.
Email:

Tuning: standard

INTRO

e|---------------------------------------------------------------------------|
B|---------------------------------------------------------------------------|
G|--9-9-8-8-7-7-6-6-5-5-4-4-3-3----------------------------------------------|
D|--9-9-8-8-7-7-6-6-5-5-4-4-3-3--5-5-----------------------------------------|
A|--7-7-6-6-5-5-4-4-3-3-2-2-1-1--5-5-----------------------------------------|
E|-------------------------------3-3-----------------------------------------|


VERSE - repeat till the other part

e|---------------------------------------------------------------------------|
B|---------------------------------------------------------------------------|
G|---------------------------------------------------------------------------|
D|------------------------------------2---2-0-2------------------------------|
A|---------------5--3----------------------------5--3--3---5-5-5-5-5---------|
E|----5---5-3-5--------5--5-5-5-5-5------------------------3-3-3-3-3---------|


Other part

e|---------------------------------------------------------------------------|
B|--------------------------------------------3------------------------------|
G|---------2-2-------------------------0------0------------------------------|
D|----2-2--0-0---------5-5--------1s2-----2----------------------------------|
A|----0-0---------5-5--3-3---------------------------------------------------|
E|----------------3-3--------------------------------------------------------|


e|---------------------------------------------------------------------------|
B|---------------------------------------------------------------------------|
G|---------------------------------------------------------------------------|
D|---------------------------------------------------------------------------|
A|-------------3-3-3-3-3-----------5-5-5-5-5---------3-----------------------|
E|----0--3--5-------------0--3--5--------------0--3--------------------------|


Then comes the verse again and then this 'other part' again and then another part that I 
figured out yet.
Добавлено: 05.06.2012
Другие материалы по этой песне:
  • Аккорды и текст

Страница создана 05.06.2012
http://primanota.ru/the-vicious-five/the-vice-in-advice-chords.htm
Привет, Гость.
Предлагаем пройти революционный курс по гитаре.
Подарок от PrimaNota.Ru, забирай!