PrimaNota.ru - самый крупный в мире бесплатный архив песенных текстов, аккордов, табулатур и нот


The Vicious Five - Lisboon Calling - таба, видео

Регистрация Запомнить меня
Войти через:  Facebook Google Twitter Vk Yandex Mail.ru

The Vicious Five - Lisboon Calling - таба, видео

Печатать
Просмотров: 86
-------------------------------------------------------------------------------
                             Lisbon Calling - Vicious Five
-------------------------------------------------------------------------------

Tabbed by: Joanaquai
Email:

Tuning:ebgdae

INTRO

e|---------------------------------------------------------------------------|
B|---------------------------------------------------------------------------|
G|---9-9-9-9-----------7-7-7-7-----------------------------------------------|
D|---9-9-9-9----7-7----7-7-7-7----5-5----------------------------------------|
A|---7-7-7-7----7-7----5-5-5-5----5-5----------------------------------------|
E|--------------5-5---------------3-3----------------------------------------|


SOLO NO REFRÃO

e|---------------------------------------------------------------------------|
B|---------------------------------------------------------------------------|
G|------------12---14---14br------------12---14---14br--12-------------------| 2x
D|-----12h14---------------------12h14----------------------14---------------|
A|---------------------------------------------------------------------------|
E|---------------------------------------------------------------------------|


e|---------------------------------------------------------------------------|
B|-----------15--------------------------------15----------------------------|
G|----12h14-------14--12b(small bend)--12h14--------14--12b(small bend)------| 2x
D|------------------------14---------------------------------14---12---14----|
A|---------------------------------------------------------------------------|
E|---------------------------------------------------------------------------|




http://www.myspace.com/theviciousfive
Добавлено: 26.03.2012
Другие материалы по этой песне:
  • Аккорды и текст

Страница создана 26.03.2012
http://primanota.ru/the-vicious-five/lisboon-calling-chords.htm
Привет, Гость.
Предлагаем пройти революционный курс по гитаре.
Подарок от PrimaNota.Ru, забирай!