PrimaNota.ru - самый крупный в мире бесплатный архив песенных текстов, аккордов, табулатур и нот


The Verve - Virtual World - текст песни, таба, видео

Регистрация Запомнить меня
Войти через:  Facebook Google Twitter Vk Yandex Mail.ru

The Verve - Virtual World - текст песни, таба, видео

Печатать
Просмотров: 212
Virtual World - The Verve


Intro/verse chord pattern (Play loosely):

Em       G
|----3----3--|--------------|
|----3----3--|--------------|
|----0----0--|--------------|
|-2----0-----|-0-----0-0-0--|
|-2----2-----|-2---2-0-2-0--|
|-0----3-----|-3---3--------|


  Em           G
See the water break my hand
  Em            G
No-one knows my name
  Em          G     Em    G
I'm not in demand.


  Em                   G
Signs are right, the sighs are here
  Em              G
Who needs virtual world?
  Em             G
When I can see it now
  Em         G      Em     G
I can see it now, oh now, oh now, now


  Em        G
No-one goes, no-one cares
  Em                  G
No-one seen it anywhere.


 A                    C
She's breathing life into lone dead stars
 A
Have you ever seen it man
 C
I ain't seen nothin' nothin' at all

Em                  G
Come see the water break my fall
Em              G
No-one knows no-one comes
Have you ever seen the book?
The one on my help
The one entitled self death, self death
How to earn a million pounds
I can see it now, oh the hearse

A                       C
She's breathing down a hole in my head
A
In the dirty half-light
        C
Where time means nothing at all

Bridge/Solo:

A pause that lasts 4 bars, then (play loosely):

|--------------|--------------|--------------|--------------|
|--------------|--------------|--------------|--------------|
|--------------|---9-----9----|--------------|---9---9-9----|
|--------------|---9-----9----|--------------|---9---9-9----|
|--------------|---7-----7----|--------------|---7---7-7----|
|-0-----7-10---|------------0-|-------7-10---|--------------| x6

|------------|-------------------|--------------|-------------------|
|------------|-------------------|--------------|-------------------|
|-7h9-9-7--9-|-7-7---------------|-9h11-11-7--9-|-7-7---------------|
|------------|----9-7------------|--------------|----9-7------------|
|------------|-------10--7--5--7-|--------------|-------10--7--5--7-|
|------------|-------------------|--------------|-------------------|

|---------------------|--------------------------|
|---------------------|--------------------------|
|-9-6h9-6h9-6h9-6h9-6-|-12-9h12-9h12-9h12-9h12-9-|
|---------------------|--------------------------|
|---------------------|--------------------------|
|---------------------|--------------------------|

|---------------------|----------------------------|
|---------------------|---------------------10-----|
|-9-6h9-6h9-6h9-6h9-6-|-12-9h12-9h12-9h12-9---12-9-|
|---------------------|----------------------------|
|---------------------|----------------------------|
|---------------------|----------------------------|

|------------|-------------------|--------------|-------------------|
|------------|-------------------|--------------|-------------------|
|-7h9-9-7--9-|-7-7---------------|-9h11-11-7--9-|-7-7---------------|
|------------|----9-7------------|--------------|----9-7------------|
|------------|-------10--7--5--7-|--------------|-------10--7--5--7-|
|------------|-------------------|--------------|-------------------|

|------------|-------------|------------|---------------|
|---/14-12---|-------------|---/14-12---|---------------|
|-9/---------|-----14-12---|-9/---------|-----14-12-----|
|------------|-12----------|------------|-12---------14-|
|------------|-------------|------------|---------------|
|------------|-------------|------------|---------------| 
Repeat this many times, I can't remember how many exactly.
During this verse, keep repeating the last part, ad lib: 

I'm calling out to someone
Anyone who'll have me
Does anybody need me?
Does anyone know how to cry?
What happens when I go?
What happens when it snows?
I bet you could if you wanted to end
Betcha could if you wanted to end
Betcha could…

As for the end, repeat the verse chord pattern while fading out.

And that's it. Enjoy!
Добавлено: 07.12.2013
Другие материалы по этой песне:
  • Аккорды и текст

Страница создана 17.06.2012
http://primanota.ru/the-verve/virtual-world-chords.htm
Привет, Гость.
Предлагаем пройти революционный курс по гитаре.
Подарок от PrimaNota.Ru, забирай!