PrimaNota.ru - самый крупный в мире бесплатный архив песенных текстов, аккордов, табулатур и нот


The Verve - Urban Hymns (album) - таба, видео

Регистрация Запомнить меня
Войти через:  Facebook Google Twitter Vk Yandex Mail.ru

The Verve - Urban Hymns (album) - таба, видео

Печатать
Просмотров: 136
Band - The Verve
Album - Urban Hymns

 1. Bitter Sweet Symphony
 2. Sonnet
 3. The Rolling People
 4. The Drugs Don't Work
 5. Catching The Butterfly
 6. Neon Wilderness
 7. Space And Time
 8. Weeping Willow
 9. Lucky Man
10. One Day
11. This Time
12. Velvet Morning
13. Come On


Album tuning is (EADGBe)

Enjoy it!!

----------------------------------------------------------------

 1. Bitter Sweet Symphony

Chords:

E	(022100)
Bm7	(x24432)
D	(xx0232)
A	(x022200

 E            Bm7         D           A
e -------------------------------------------------|
b -12------12--------------15------15--14------14--|
g -----13------14------14------14----------14------|
d -----------------16------------------------------|

Lyrics:
Cos' it's a bittersweet symphony this life...
Trying to make ends meet , you're a slave to the money then you die.
I'll take you down the only road I've ever been down...
You know the one that takes you to the places where all the pain lives ,
yeah.

No change, I can change, I can change, I can change,
but I'm here in my mould , I am here in my mould.
But I'm a million different people from one day to the next...
I can't change my mould , no,no,no,no,no,no,no

Well I never pray,
But tonight I'm on my knees, yeah.
I need to hear some sounds that recognise the pain in me, yeah.
I let the melody shine, let it cleanze my mind , I feel free now.
But the airwaves are clean and there's nobody singing to me now.

No change, I can change, I can change, I can change,
but I'm here in my mould , I am here in my mould.
And I'm a million different people from one day to the next
I can't change my mould, no,no,no,no,no,no,no

(Well have you ever been down?)
(I can change, I can change...)

Cos' it's a bittersweet symphony this life.
Trying to make ends meet, trying to find some money then you die.
You know I can change, I can change, I can change,
but I'm here in my mould, I am here in my mould.
And I'm a million different people from one day to the next.
I can't change my mould, no,no,no,no,no,no,no

(I'll take you down the only road I've ever been down)
(I'll take you down the only road I've ever been down)
(It justs sex and violence melody and silence)
(Been down)
(Ever been down)
(Ever been down)

----------------------------------------------------------------

 2. Sonnet

Chords:

C	(032010)
Am	(X02210)
F	(133211)
G	(320033)
Em	(022000)

in intro:
snappy muted electric guitar with
a little reverb that goes:

    C                             Em
E|--X--------------X-----------|--7--------------------------7------|
B|--8--------------8-----------|--8--------------------------8------|
G|--9--------------9-----------|--9--------------------------9------|
D|-10-------------10-----------|--9--------------------------9------|
A|-----------------------------|------------------------------------|
E|-----------------------------|------------------------------------|

   Am                             F
E|--5--------------5-----------|--1---------------1-----------------|
B|--5--------------5-----------|--1---------------1-----------------|
G|--5--------------5-----------|--2---------------2-----------------|
D|--7--------------7-----------|--3---------------3-----------------|
A|-----------------------------|------------------------------------|
E|-----------------------------|------------------------------------|

And another guitar comes in with the
electric guitar with these fills:
    C
E|-----------------------------|------------------------------------|
B|-----------------------------|------------------------------------|
G|-----------------------------|------------------------------------|
D|----------------------12/14--|------------------------------------|
A|-----------------------------|-------10----10/12-----------10-----|
E|-----------------------------|---------------------10h12----------|

E|-----------------------------|------------------------------------|
B|-----------------------------|-----------10-----------------------|
G|--------------------12-------|---10-----10------------------------|
D|--------------------12h14h12-|---10----10-------------------------|
A|-----------------------------|------------------------------------|
E|-----------------------------|------------------------------------|

Fill 1:
E|-----------------------------------------------------------------|
B|-----------------------------------------------------------------|
G|--12/14----------------------------------------------------------|
D|---------12/14---10/12---------14--------12h14h12--10---------10-|
A|------------------------10/12--------------------------10h12-----|
E|-----------------------------------------------------------------|

Fill 2:
E|-----------------------------------------------------------------|
B|------13b(1/4)---------------------------------------------------|
G|--14------------12--14-------------------------------------------|
D|-------------------------------12-/-14---12h14h12------------10--|
A|--------------------------------------------------10h12h10-------|
E|-----------------------------------------------------------------|

Fill 3:
   with wah pedal
E|-----------------------------------------------------------------|
B|-----------------------------------------------------------------|
G|-----------------------------------------------------------------|
D|--12-------------------------------------------------------------|
A|-----------------------------------------------------------------|
E|-----------------------------------------------------------------|

Fill 4:
E|------------------------------------------------------------------|
B|------------------------------------------------------------------|
G|--12/14\12--------------------------------------------------------|
D|------------12/14---10/12---------10-----------10------12/14------|
A|---------------------------10h12---------------10h12--------------|
E|--------------------------------------10h12-----------------------|

Fill 5:
E|--------------------------------------------------------------------|
B|--------------------------------------------------------------------|
G|------------------------------------------------12------------------|
D|--12b(14)b12--h10--------------------12---12/14----14\12--10--------|
A|-------------------10h12--------------------------------------10h12-|
E|--------------------------10-10h12----------------------------------|


Solo:
E|-----------------------------------------------------------------------|
B|-----------------------------------------------------------------------|
G|-------7-----7-7------7------7---- 7--7----7h9--7h9--7-----------------|
D|--7/9----7/9------7/9--- 7/9---7/9---------------------10--10--10-9-7--|
A|-----------------------------------------------------------------------|
E|-----------------------------------------------------------------------|

E|-----------------------------------------------------------------|
B|-----------------------------------------------------------------|
G|--7h9--7h9--7----------------------------------------------------|
D|----------------10--10--10-9-7-----------------------------------|
A|-----------------------------------------------------------------|
E|-----------------------------------------------------------------|

Verse 1
-------
C                        
my friend and me, 
Em
looking thru her 
Em	   Am		F
red box of memories
C                        
Faded, I'm sure, 
    Em
but love seems to 
Em	     Am			F
stick in her things you know


Chorus
------
F                       G      
yes, there's love if you want it, 
		   Em	      F	
don't sound like a sonnet, my love
F                       G      
yes, there's love if you want it, 
		   Em	      F	
don't sound like a sonnet, my love
Em F
my love.

REPEAT INTRO


Verse 2
-------
C                        
why can't you see 
     Em
that nature has it's way
Em Am		F
of warning me?
C                        
eyes open wide, 
Em
looking at the heavens 
Em	     Am		F
with a tear in my eye


Chorus
------
F                       G      
yes, there's love if you want it, 
		   Em	      F	
don't sound like a sonnet, my love,
F                       G      
yes, there's love if you want it, 
		   Em	      F	
don't sound like a sonnet, my love
Em F
my love.


REPEAT INTRO


Middle 8
--------

G                                             
Sinking faster than a boat 
	  F
without a hull
   F
my love
G                                                           
dreaming about the day
		   F 
when i can see you here
      F		G
by my side
   F  G    F
by my side


Verse 3
-------
F	    G
Here we go again
		  Em
and my head it is gone
   F
my love
F		G
I stop to say hello
			   Em
because I think you should know
Em F    G  F
by now, by now (x7)

----------------------------------------------------------------

 3. The Rolling People

Chords:

A	(x02220) or (577655)
B	(x24442)
E5	(x799xx)
D5	(x577xx)
G	(320033) or (355433)


GUITAR 1 - NICK McCABE
GUITAR 2 - SIMON TONG

 0:18 (GUITAR 1)
I------------------------ \I
I------------------------ \I
I------------------------ \I
I-----7-9-----7-9-----9-- \I
I-7/9-----7/9-----7/9---- \I
I------------------------ \I
                            THESE BITS ARE DONE SIMILTANEOUSLY BETWEEN THE 2 GUITARISTS
 0:20 (GUITAR 1)           /
I------I---I-----------I---I------- \I
I------I---I-----------I---I------- \I
I------I8-8I-----------I9-7I------- \I
I------I9-9I-----------I9-7I------- \I
I------I---I-----------I---I--I --- \
I------I---I-----------I---I--I  -- \
       I   I           I   I       \  X2
       I   I           I   I       /
 (GUITAR 2)I           I   I      /
I------I---I-----------I---I-- \I  /
I------I---I-----------I---I-- \I
I------I---I-----------I9-7I-- \I
I-7/9--I9-9I---9--9--9-I9-7I-- \I
I-7/9--I9-9I---9--9--9-I7-5I-- \I
I-5/7--I7-7I---7--7--7-I---I-- \I


 0:26 (GUITAR 1)
I------I---I-----------I---I-- \I
I------I---I-----------I---I-- \I
I------I8-8I-----------I7-7I-- \I
I------I9-9I-----------I7-7I-- \I
I------I---I-----------I---I-- \I
I------I---I-----------I---I-- \I
       I   I           I   I
       I   I           I   I
 (GUITAR 2)I           I   I
I------I---I-----------I---I-- \I
I------I---I-----------I---I-- \I
I------I---I-----------I9-7I-- \I
I-7/9--I9-9I---9--9--9-I9-7I-- \I
I-7/9--I9-9I---9--9--9-I7-5I-- \I
I-5/7--I7-7I---7--7--7-I---I-- \I

 0:50
I-------------------------------------------I
I-10b12r10b12r10b12r10b12r10b12r10b12(hold)-I
I------------------------------------------- \I
I------------------------------------------- \I
I------------------------------------------- \I
I------------------------------------------- \I

 0:55
I-------------------------------------------------- \I
I-------------------------------------------------- \I
I------------7-------7-9b11--11(hold)---9-7-----I-- \  x2
I-2/9--7-8-9---7-8-9---------------- --------9----- \I
I-------------------------------------------------- \I
I-------------------------------------------------- \I
                                                                     GUESSED HERE
 1:19                                                                I1:27        I
I--------------------------------------------------------------------I------------ \I
I-2/7--7-------------7---7-7--------7-7------------------------------I------------ \I
I-2/7--7-------------7---7-7--------7-7-------------------7h9--------I------------ \I
I-2/7--7--9------7h9-7---7-7-9p7h9--7-7-7h9p7h9-------7h9-----7------I7-7-7-7-7-7- \I
I---------9--7/9----------------------------------7h9------------7h9-I7-7-7-7-7-7- \I
I--------------------------------------------------------------------I------------ \I

 1:28                                         1:34
I-------------------------------------------------------------------- \I
I------------------------7---------------------7-7--------7-7--7----- \I
I-9--9-7---7-------------7-------------7-7-7---7-7--------7-7----9p7- \I
I-9------9---9------7h9--7--9------7h9-7-7-7---7-7-9p7h9--7-7-------- \I
I---------------7/9---------9--7h9----------------------------------- \I
I-------------------------------------------------------------------- \I

 1:38
I------------------------------------------------------------ \I
I--------------------------------10----10----10-12----12----- \I
I---------7h9------------7h9-7h9-12b14-12b14----14b16-14b16-- \I
I-----7h9-----7------7h9------------------------------------- \I
I-7h9------------7h9----------------------------------------- \I
I------------------------------------------------------------ \I

 2:06
I----------------------------------------------------- \I
I-2/7-7-7--------------------7-7--------7-7----------- \I
I-2/7-7-7--------------------7-7--------7-7----------- \I
I-2/7-7-7-9------------------7-7-9p7h9--7-7-7h9p7h9--- \I
I---------9--5-5-5-5---------------------------------- \I
I--------------------7-7-7-7-------------------------- \I

 2:13
I------------------------------------------------------------- \I
I------------------------------7-7-10-10-10-12----12---------- \I
I--------------------------7h9--------------14b16-14b16------- \I
I-------------7-7------7h9------------------------------------ \I
I-----5h7-8-9------8h9---------------------------------------- \I
I-5/7--------------------------------------------------------- \I

 2:19                                      2:25
I-------------------------------------------------------------------------------------------- \I
I-7-7------------7-7--7-7--------7-7--7/9-----------------2/7-7-7-7--10----10----12----12---- \I
I-7-7------------7-7--7-7--------7-7--7/9-----------------2/7-7-7-7--12b14-12b14-14b16-14b16- \I
I-7-7-9------7h9-7-7--7-7-9p7h9--7-7--7/9-------------7h9-2/7-7-7-7-------------------------- \I
I-----9--7h9------------------------------------5h7h9---------------------------------------- \I
I-------------------------------------------5h7---------------------------------------------- \I

 2:30
I-7p5----------------------- \I
I-----7p5------------------- \I I REALLY CAN'T BE BOTHERED TABBING EVERY LITTLE NOTE ON THIS ONE,
I---------7p4--------------- \I JUST IMPROVISE ROUND THIS ONE
I--------------7--4--------- \I
I-------------------7p5----- \I
I-----------------------7--- \I

 2:54
I-------------------------------------------------- \I
I-5/10-10--9b10r9----------------9b10-------------- \I
I-----------------11p9----------------11p9--------- \I
I----------------------12b13--9~-----------9h12---- \I
I-------------------------------------------------- \I
I-------------------------------------------------- \I

 3:00
I--------------------------------------------------------------- \I
I-5/10-101010--10-10--9b10r9------------------------------------ \I
I----------------------------11p9------------------------------- \I
I---------------------------------12b13--9~--7b8h9-7b8h9-7b8h9-- \I
I--------------------------------------------------------------- \I
I--------------------------------------------------------------- \I

 3:05
I--------------------------------------------------------------- \I
I-5/10-101010--10-10--9b10r9----------------9b10r9-------------- \I
I----------------------------11p9------------------11p9/11------ \I
I---------------------------------12b13--9~--------------------- \I
I--------------------------------------------------------------- \I
I--------------------------------------------------------------- \I

 3:11
I--------------------------------------------------- \I
I-5/10 1010-10-10-10b12----------------------------- \I
I-----------------------11-9---------------7~------- \I
I----------------------------12-9------7h9---------- \I
I----------------------------------7h9-------------- \I
I--------------------------------------------------- \I

 3:28                                      3:34
I----------------------------------------------------------------------------------------- \I
I-2/7--7--------------7--7-7----7----6-----7----------------------------7-7-7-7----------- \I
I-2/7--7--------------7--7-7----9b11-9b11--7----------------------------7-7-7-7----------- \I
I-2/7--7--9------7h9--7--7-7-9-------------7--9p7h9-----------------7h9-7-7-7-7-9p7h9p7h9- \I
I---------9--7h9-------------9-----------------------5~-----5h7-7/9----------------------- \I
I-------------------------------------------------------5h7------------------------------- \I

 3:40
I--------------------------------------------- \I
I-7--------10----10-----7-7-----12----12------ \I
I-7-----12-12b14-12b14--7-7-----14b16-14b16--- \I
I-7--9------------------7-7--9---------------- \I
I----9-----------------------9---------------- \I
I--------------------------------------------- \I

 3:46
I------------------------------------------------ \I
I-7-----------------------------7-7-7-7-7-------- \I
I-7-----------------------------7-7-7-7-7-------- \I
I-7--9p7h9------------------7h9-7-7-7-7-7-9p7h9-- \I
I-----------5~-----5h7--7/9---------------------- \I
I--------------5/7------------------------------- \I

 3:52
I--------------------------------------------------------- \I
I-12----12------------------------------------------------ \I
I-14b16-16r14--11h14p11--11------------------------------- \I x3 WITH TINY VARIATIONS THAT I'M
I----------------------14--14p12h14p12--12~-14-14-14-14--- \I    SURE YOU CAN FIGURE OUT
I-------------------------------------14----14-14-14-14--- \I
I--------------------------------------------------------- \I


I------------------------------------------------------------ \I
I-12----12----12--------------------------------12-12~~\----- \I
I-14b16-14b16-16r14-11h14p11--11----------11h14-------------- \I
I---------------------------14--14p12h14--------------------- \I
I------------------------------------------------------------ \I
I------------------------------------------------------------ \I

 4:16         4:22     4:27   4:33
I-------------------------------------- \I
I-7-----7------10------12-----10------- \I
I-9b11--9b11---12b14---14b16--12b14---- \I
I-------------------------------------- \I
I-------------------------------------- \I
I-------------------------------------- \I

 4:39
I------------------------------------------------- \I
I------------------------------------------------- \I
I-----------------9/7---------------9-9b11r9-7~--- \I
I-12\---7-----7h9-9-7--12\---7--9p7--------------- \I
I----/9---7h9-------------/9---------------------- \I
I------------------------------------------------- \I

 4:45
I------------------------------------------------------ \I
I------------------------------------7----7------------ \I
I-------7\----------7-7------7---9p7-9b11-9b11-etc----- \I
I-----7----7/9------7-7--7h9---9----------------------- \I
I-7/9------7/9--7h9------------------------------------ \I
I------------------------------------------------------ \I

 4:55           4:58
I------------------------------------------------------ \I
I-10----10------7----3-------------------7------------- \I
I-12b14-12b14---9b11-6b8-----------------9b11-7-------- \I
I-------------------------7h9-7h9-7h9-9/--------9~----- \I
I------------------------------------------------------ \I
I------------------------------------------------------ \I

FROM THIS POINT ON JUST IMPROVISE WITH BENDS AND TREMLO PICKING

 5:58
I-------------------------------------------------- \I
I-10----12----15-------15----15-------------------- \I
I-12b14-14b16-17b19----17b19-17b19--2b2.5/4~~~----- \I
I-------------------------------------------------- \I
I-------------------------------------------------- \I
I-------------------------------------------------- \I

 6:03
I-------------------------------- \I
I-15----15-----12----12---------- \I
I-17b19-17b19--14b16-14b16------- \I
I-------------------------------- \I
I-------------------------------- \I
I-------------------------------- \I

A
I got one more life

B
Can you see it wasting away?

E5
But I got a plan

D5
Do you understand?


A
The drugstore wife

B
I was dealing soul and other white

E5
I won't shake your hands

D5
'Cause death has no plans


      B
But here we are the Rolling people

A
Can't stay for long

                           G       
We've gotta go

B
So come alive we're the rolling people 

A
Don't ask why

                     G            
We don't know now, yeah


A 
I'm on a big jet plane

B
With my baby's crime in my veins

E5
I'll be the first to toast

D5
To my rowdy soul 


      B
But here we are the Rolling people

A
Can't stay for long

                           G       
We've gotta go

B
So come alive we're the rolling people 

A
Don't ask why

                     G            
We just don't know now


B
Don't even know which way I'm going to

The lights are on and I am feeling blue

I hope you know which way you're gonna die

Thank you for my life, I say goodnight, goodbye. 

 
You see me going


      B
But here we are the Rolling people

A
Can't stay for long

                           G       
We've gotta go

B
So come alive we're the rolling people 

A
Don't ask why

                     G            
We just don't know now

----------------------------------------------------------------

 4. The Drugs Don't Work

Chords:

C	(032010)
Am	(x02210)
Em	(022000)
F/A	(xx3213)
Gsus4	(320013)


Intro:
C Am Em F/A Gsus4 C Gsus4 C


Verse1:
C
All this talk of growin' old
              Am
is gettin' me down my love
                Em
like a cat in a bag
           F/A
waiting to drown
  Gsus4    C          Gsus4  C
I know I'm coming down


Verse2:
      C
And I hope you're thinking of me
           Am
as you lay down inside
                    Em
now the drugs don't work
                  F/A
they just make me worse
    Gsus4                C         Gsus4   C
but I know I'll see your face again


Chorus:
           F/A  Em
cause baby ooohhhh
          Am               G
if heaven calls I'm coming too
         F/A  Em
and baby ooohhhh
          Am                    G
if heaven calls I'm coming with you


Verse3:
      C
But I know I'm on a losing streak
              Am
I passed down my old street
                 Em
and if you wanna stop
               F/A
then give me a shout
              Gsus4
and I'll come running down
    C          Gsus4   C
you know I will
                    Em
But the drugs don't work
                  F/A
they just make me worse
      Gsus4              C         Gsus4   C
and I know I'll see your face again


Chorus:
           F/A  Em
cause baby ooohhhh
          Am               G
if heaven calls I'm coming too
         F/A  Em
and baby ooohhhH
          Am               G
if heaven calls I'm coming too
              F/A Em
Just like you said
           Am                     G
I'm better dead, when I ain't got you
              F/A Em
Just like you said
           Am                     G
I'm better dead, when I ain't got you
                 Em
but if you wanna show
                 F/A
then just let me know
         Gsus4        C        Gsus4   C
and I'll sing in your ear again
                    Em
but the drugs don't work
                  F/A
they just make me worse
    Gsus4                C         Gsus4   C
but I know I'll see your face again
                Em
like a cat in a bag
           F/A
waiting to drown
  Gsus4    C          Gsus4   C
I know I'm coming down
                    Em
now the drugs don't work
                  F/A
they just make me worse
      Gsus4              C         Gsus4
and I know I'll see your face again

Outro:
C Gsus4 C Gsus4 C

----------------------------------------------------------------

 5. Catching The Butterfly

The opening bass line kicks in:

Gwith an organ that sounds like it's breathing
G|----------------------------------|
D|------5h7---5h7---5--7---5---7----|  repeated through the song
A|----------------------------------|
E|---5------------------------------|


The lead guitar uses some kind of sustaining effect that
sounds almost like an E-bow.  I'm not sure what he actually
uses, but you can get a similar effect by using a wah pedal.
Start with the pedal all the way back and slowly press down
a little bit.

The subtle decending lead guitar at the beginning:
E|----------------------------------|------------------------------------|
B|----------------------------------|------------------------------------|
G|----------------------------------|------------------------------------|
D|---11----\--------(7)-------------|---7--------------------------------|
A|----------------------------------|------------------------------------|
E|----------------------------------|------------------------------------|

And the main riff:
E|----------------------------------|------------------------------------|
B|----------------------------------|------------------------------------|
G|----------------------------------|------------------------------------|
D|-11----------9--------12----------|---9------11------7-----9---(7---5)-|
A|-(0)=====-------------(0)====-----|--(0)=====--------------------------|
E|--9----------7--------10----------|---7-------9------5-----7---(5---3)-|
 (It sounds good if you let the A string drone)

A guitar pretty much mimics the vocal melody during the verses.
Another guitar improvises on muted A barre chords.

And the chorus goes something like:

   A
I'm gonna keep             catching the butterfly              in that
E|---------X-----X---------------------|---X-----X-----------------------|
B|---------X-----X---------------------|---X-----X-----------------------|
G|---------6--X--6---------------------|---4--X--4-----------------------|
D|---------7--X--7---X-7---X-7--X--7---|---5--X--5---X--5---X--5--X--5---|
A|---------7--X--7---X-7---X-7--X--7---|---5--X--5---X--5---X--5--X--5---|
E|---------5--X--------5-----5--X--5---|---3--X---------3------3-----3---|

  dream of mine..
E|----------------------------------|
B|----------------------------------|
G|----------------------------------|
D|--4---X--4---X--4--X--4(-\-2-)----|
A|--5---X--5---X--5--X--5-----------|
E|--2---X--2---X--2--X--2(-\-0-)----|


Chorus lead fill 1:
  E|----------------------------------|--------------------------------|
  B|----------------------------------|--------------------------------|
  G|------------7------7-\-6----------|--------------------------------|
  D|----7-/-9---9---9----------7------|----------5h7-------------------|
  A|----------------------------------|---5-h-7------------------------|
  E|----------------------------------|--------------------------------|

Chorus lead fill 2:
     tremolo picking
  E|--------------------------------|----------------------------------|
  B|--------------------------------|----------------------------------|
  G|--------------------------------|----------------------------------|
  D|----7h9h7h9h7------5h7h5h7h5----|--4h5h4h5h4------2h4h2h4h2--------|
  A|--------------------------------|----------------------------4-----|
  E|--------------------------------|----------------------------------|

Chorus lead fill 3:
  E|-------------0--------------------|---------0--------0---------0-------|
  B|-----8---8--------10--------------|----8--------10--------12------10---|
  G|--X7------------------------------|------------------------------------|
  D|----------------------------------|------------------------------------|
  A|----------------------------------|------------------------------------|
  E|----------------------------------|------------------------------------|

Solo:
   very explosive
E|----------------------------------|------------------------------------|
B|----------------------------------|------------------------------------|
G|----------------------------------|------------------------------------|
D|-7------9----10--9-----10----7----|--7------9----10--9-----10----7-----|
A|-0====----------------------------|--7---------------------------------|
E|-5------7-----8--7------8----5----|--5------7-----8--7------8----5-----|

  then this is repeated with some weird phasing effect:
E|-------------------------------------|
B|-------------------------------------|
G|--12b(14)---b14---b14--b14--14(12)---|
D|-------------------------------------|
A|-------------------------------------|
E|-------------------------------------|

And now let's put everything together to make sense

Verse 1:
So you were born and so you saw
The beauty's eyes to keep and hold
Oh child within has healing ways
It sees me through my darkest days

Chours:
I'm gonna keep catching the butterfly
in that dream of mine.
I'm gonna keep catching the butterfly
in that dream of mine.

In my lucid dreams
In my lucid dreams

Verse 2:
Something known through life no fun
I wanna feel, I wanna run

Chorus:
I'm gonna keep catching the butterfly
in that dream of mine.        * (with fill 1)
(x2)

In my lucid dreams
In my lucid dreams

(Solo)

Chours:
I'm gonna keep catching the butterfly
in that dream of mine.
Keep catching the butterfly
in that dream of mine.        * (with fill 2)
I'm gonna keep catching the butterfly
in that dream of mine.        * (with fill 3)

Outro:
My darkest dreams
My darkest dreams
My lucid dreams
My forgotten schemes
My lucid dreams
My forgotten schemes
I see through you,
You see through me...
Belive in me..
To be in the light...

----------------------------------------------------------------

 6. Neon Wilderness

Tempo: 54


[Bass Riff]
                                                 
G|-------------------|-----------------------|
D|-------------------|*---------------------*|
A|-------------------|*---------------------*|
E|--------------3----|---0----------3--3-----|


[Guitar Riff]
                                
E|-------------------|
B|-------------------|
G|*-----------------*|
D|*------------5----*|
A|-------5--7--------|
E|-------------------|

In a neon wilderness
He was restless
Escape loneliness 
Find a new address
Stood before I sink
In a neon wilderness
Spill my last drink
Yeah, he was restless
Say good-bye to my new friends
Escape from loneliness
I found a new address
In the last room
I hear a boom
Someone else's distress
In a neon wilderness
Someone else's distress
In a neon wilderness
And I hear a boom
In a neon wilderness
He was restless
Escape loneliness 
For a new address
In a neon wilderness
He was restless
Escape loneliness 
For a new address

----------------------------------------------------------------

 7. Space And Time

Chords:

A	(xO2220)
E	(02210x)
G  	(320033)
D	(xx0232)
Em7	(022030)
Asus2	(x0220x)
Asus4	(x02230)
Asus4/G	(x02233)


Intro:

A  E  G  D A  x2

Verse:

A                            E
There ain't no space and time
                      G
to keep our love alive
                           D       A
we have existence and it's all we share
A                        E
There ain't no real truth
                        G
there ain't no real lies
                         D         A
keep on pushin 'cause I know it's there

Bridge:

D           Em7                    G
Oh, can you just tell me it's all right (it's all right)
             D   Asus
let me sleep to_night
D            Em7          G
Oh, can you comfort me tonight (it's all right)
                 D  Asus
make it all seem fi_ne

Chorus:

E             G        D     A
I just can't make it alone  oh, no, no   x2

Verse2:

A                       E
there'll be no lullabies
                          G
there'll be no tears cried
                    D         A
we feel numb 'cause we don't see
A                     E
That if we really care
                  G
and we really love
                  D        A
think of all the joy we'd feel

Bridge: (same as above...)

Chorus:
E             G        D     A
I just can't make it alone  oh, no, no  (tonight)  x4

Middle:

A  E  G  D A  x2

A                  E      G    D A
Ain't got no lullaby, no, no        x2
             A           E       G     D A
There is no space and ti_me, Oh lord        x2

A  E  G  D A  x2

Outro:

A  Asus2  Asus4  Asus4/G  x2

A          Asus2              Asus4        Asus4/G
We have existence and it's all we share       x5
A                         Asus2
Keep on pushing 'cause I know it's there
Asus4                              Asus4/G      x4
keep on pushing 'cause I know it's there

End with an A

----------------------------------------------------------------

 8. Weeping Willow

Chords:

Em7	(022030)
Dsus2	(xx0230)
Cadd9	(x32033)

Intro (2 bars)
Piano plays Em7 - Guitar plays this-

With wah pedal
e-------------
b--8-----8---
g-------------
d-------------
a-------------
e-------------

Em7, Dsus2, Cadd9, Dsus2

     Em7           Dsus2
When morning breaks
   Cadd9             Dsus2
We hide our eyes and our love's aching
Em7             Dsus2 Cadd9 Dsus2
Nothing's strange

       Em7       Dsus2
It was in our hands 
     Cadd9  Dsus2
From six to ten
                 Em7     Dsus2 Cadd9 Dsus2
It slipped right out again

Cadd9          Dsus2
There'll be no better time
Cadd9          Dsus2
There'll be no better way
Cadd9          Dsus2         Em7
There'll be no better day to save me
Dsus2
Save me
      Em7
Yeah, save me
      Dsus2
Yeah, save me

After the first 'save me' is this riff which is repeated after each save me-
e----------------------------
b--/10 10 -8----------------
g--------------9h5----------
d----------------------------
a----------------------------
e----------------------------
Each time it is played there are slight variations with bends etc.

                    Em7    Dsus2   Cadd9
I hope you see like I see, yeah, yeah
  Dsus2             Em7    Dsus2   Cadd9          
I hope you see what I see, yeah, yeah
  Dsus2             C
I hope you feel like I feel

during the chorus the lead guitar plays this-
e------------------------
b-------8h-10----------
g---5/9 ----------------
d-----------------------
a-----------------------
e-----------------------

I hope you see like I see
e-------------------------------------
b----8h-10-10-10-8--8--------------
g-5/9 -------------------9-9---------
d------------------------------------
a------------------------------------
e------------------------------------

I hope you see what I see
e-----------------------------------------------------------------------
b--10 /12-15-15-12-15-15-15-12-15-15-12--------------------------
g----------------------------------------------14b16-14b16-14b16-12
d-----------------------------------------------------------------------
a-----------------------------------------------------------------------
e-----------------------------------------------------------------------
I hope you feel like I ...                      feel

Above I have tried giving timing with the lyrics. All the 3 bars above use a wah pedal
After this go back to the verse chords (With wah)

Em, Dsus2, Cadd9, Dsus2

        Em7           Dsus2
And the world don't stop
      Cadd9           Dsus2
There is no time for cracking up
    Em7         Cadd9   Dsus2 C
Believe me friend

            Em7       Dsus2
'Cause when freedom comes
     Cadd9    Dsus2
I'll be long gone
            Em7      Cadd9   Dsus2 Cadd9
You know it has to end


Cadd9          Dsus2
There'll be no better time
Cadd9          Dsus2
There'll be no better way
Cadd9          Dsus2         Em7
There'll be no better day to save me
Dsus2
Save me
      Em7
Yeah, save me
      Dsus2
Yeah, save me

repeat Bridge (without wah). This time play this riff for the 'save me' part-With wah
e--------------------------
b--------------------------
g--------3h5b7------------
d----3h5------------------
a--/5 ---------------------
e--------------------------

                    Em7    Dsus2   Cadd9
I hope you see like I see, yeah, yeah
  Dsus2              Em7    Dsus2   Cadd9
I hope you feel what I feel, yeah yeah
    Dsus2          Cadd9
Someone to stand beside me

Em7, Dsus2, Cadd9, Dsus2 (through the repetitions)

Beside me
Beside me
Beside me
Beside me

Beside me
Beside me
Beside me
Beside me

Beside me
Beside me
Beside me
Beside me

Beside me
Beside me
Beside me
Beside me

Dsus2   Em7
Weeping willow
    Dsus2          Cadd9
The pills under my pillow
Dsus2   Em7
Weeping willow
Dsus2         Cadd9
Pills under my pillow
Dsus2   Em7
Weeping willow
    Dsus2         Cadd9
The gun under your pillow
Dsus2   Em7
Weeping willow
Dsus2   Cadd9 Dsus2
Weeping willow

Em7, Dsus2, Cadd9, Dsus2 ('til the end)

Beside me
Beside me
Beside me
Beside me

Beside me
Beside me
Beside me
Beside me

Em7, Dsus2, Cadd9, Dsus2, Em7

----------------------------------------------------------------

 9. Lucky Man

Chords:

G	(320033)
D	(xx0232)
Dsus2	(xx0230)
Asus2	(x02200)

Intro Lead Bits:
e|---------------------|
B|---------------------|
G|--9h11---------------|
D|---------9h11--------|
A|---------------9h12--|
E|---------------------|

Intro: G D Dsus2 Asus2 - x8

Verse 1
-------
G         D  Dsus2       Asus2 
Happyness more or less
                                           G
it's just a change me something in my levity
    D Dsus2  Asus2
o-o-h  m-y m-y..


Verse 2
-------
G         D Dsus2             Asus2
happyness coming and going
                                                G
I watch you look at me watch my fever growing, I know
    D Dsus2  Asus2 
just where I a-m


Bridge
------
      Em
well, how many corners do I have to turn
G
how many times do I have to learn 
D                            Asus2
all the love I have is in my mind.


Chorus
------
          G       D Dsus2 Asus2
But I'm a lucky m-a-a-a-n
          G       D Dsus2 Asus2
with fire in my h-a-a-a-nds


Verse 3
-------
G         D  Dsus2                 Asus2
happyness something in my own place
                                          G
I'm stood here naked smiling I feel no disgrace
     D Dsus2   Asus2
with who I a-m


Verse 4
-------
G         D Dsus2         Asus2
happyness coming and going
                                                  G
I watch you look at me watch my fever growing, I know
   D Dsus2  Asus2
just who I a-m


Bridge
------
      Em
well, how many corners do I have to turn
G
how many times do I have to learn 
D                            Asus2
all the love I have is in my mind.
           G    D Dsus2 Asus2
I hope you underst-a-a-nd
           G    D Dsus2 Asus2
I hope you underst-a-a-nd


Pre-Verse
--------
    G   D Dsus2  Asus2
o-o-o-o-o-h-h-h-h 

no no no no no no no no
      G               D Dsus2  Asus2
Gotta love that never d-i-e-s

Verse 5
-------
G         D Dsus2      Asus2
Happyness more or less
                                          G
it's just a change me something in my levity


Verse 6
-------
G         D Dsus2        Asus2
happyness coming and going
                                                 G
I watch you look at me watch my fever growing, I know
G D Dsus2   Asus2
o-o-h, my my - X 4


Pre-Verse
--------
      G              D Dsus2  Asus2
Gotta love that never d-i-e-s  X 3

                                          G
it's just a change me something in my levity  X 3


Fade out
--------
G D Dsus2   Asus2
o-o-h, my my - X 2
                                          G
it's just a change me something in my levity  
G D Dsus2  Asus2
o-o-h, my my - X 2

----------------------------------------------------------------

 10. One Day

Chords:

D	(xx0232)
Dsus2	(xx0230)
C9	(032030)
G	(320033)
C	(032010)

intro:

   Dsus      C9          G
e:-------0------------------------3---
B:----3----3-------3--3--------3----3-
G:-2--2----------------0--------------
D:-0---------2------------------------
A:-----------3--2h3------2------------
E:-----------------------3--2h3-------  continues below:

riff1:

  Dsus             D
e:----0-0--2-2h3p2-2-
B:2h3--------------3-
G:-----------------2-
D:-------------------
A:-------------------
E:-------------------   

riff2:

e:----0----0-2h3p2-
B:-2h3--2h3--------
G:-----------------
D:-----------------
A:-----------------
E:----------------- 

intro  x2
------

D/dsus (vary a bit)          C9                   G           riff1
       One day maybe we will dance again, under fiery skies

D/dsus                        C9                     G           riff2
       One day maybe you will love again, love that never dies
---
D/dsus     C9     G    riff1
---

D/dsus                        C9                   G               riff1
       One day maybe you will see the land, touch skin with sand

D/dsus                             C9                   G       riff2
       You've been swimming in the lonely sea with no company
----
chorus:


D    A   C   (fiddle with C9)                                   Dsus
O----oh, don't you want to find? can't you hear this beauty in life?

    D          A      C  (fiddle with C9)                                    Dsus
The roads, the highs, breaking up your mind.  Can't you hear this beauty in life?
----

e:0---5-5-0-------3-3----0-----0-2h3p2-
B:---------3--3-3--3--2h3---2h3--------
G:-------------------------------------
D:-------------------------------------
A:-------------------------------------
E:-------------------------------------

D/dsus                        C9              G             riff2
       One day maybe you will cry again, just like a child

             Dsus                     C9                       G             riff2
You've gotta     tie yourself to the mast my friend, and the storm will end
-----
chorus again   x2  (lyrics different second time)
-----
do a riff2 sort of thing..  then continue with the same pattern.
-----
One day maybe I will dance again
One day maybe I will love again
One day maybe we will dance again
You know you've gotta
Tie yourself to the mast my friend
And the storm will end
One day maybe you will love again
You've gotta tie yourself to the mast my friend
And the storm will end

----------------------------------------------------------------

 11. This Time

Chords:

F	(133211)
G	(320033) or (355433)
Ami	(x02210)
Emi	(022000)


[Intro]
                                                     
E|------------------------|------------------------|
B|------------------------|------------------------|
G|*-5--7------------------|--5--7------------------|
D|*-------5--7------------|--------5--7------------|
A|--------------5--7------|--------------5--7------|
E|------------------------|------------------------|

E|------------------------|------------------------|
B|------------------------|------------------------|
G|--5--7------------------|--5--5--5--5--7--------*|
D|--------5--7------------|-----------------5--7--*|
A|--------------5--7------|------------------------|
E|------------------------|------------------------|

F                     G
Looking back on my life,

Am                            Em
you know that all I see are things I could've changed,

I should've done,

F                          G
Where did the good times go,

Am
good times are hard to hold,

this time, this time

Em                   F    G  Am Em
This time I'm gonna find...
E|---------------------|---------------------|
B|--x----------x----x--|--x----------x----x--|
G|--9----------9----9--|--7----------7----7--|
D|--x----------x----x--|--x----------x----x--|
A|---------------------|---------------------|
E|---------------------|---------------------|
                                                            
E|---------------------|---------------------|
B|--x----------x----x--|--x----------x----x--|
G|--5----------5----5--|--4----------5----7--|
D|--x----------x----x--|--x----------x----x--|
A|---------------------|---------------------|
E|---------------------|---------------------|


F                     G
Looking back on my life,

Am                         Em
you know that all I see are things I could've changed,

I could've done,

F                     G
No time for sad laments,

Am       Em
a wasted life is bitter spend, yeah

E|--------------------------|----------------------|
B|--5-------------5-7--5-7--|--8---------7-9--7-9--|
G|--------------------------|----------------------|
D|--------------------------|----------------------|
A|--------------------------|----------------------|
E|--------------------------|----------------------|
                                                           
E|--------------------------|----------------------|
B|--10--------13--13--13----|--10--10--------------|
G|------------13--13--13----|--10------------------|
D|--------------------------|----------------------|
A|--------------------------|----------------------|
E|--------------------------|----------------------|

F        G                 Am               Em
So rise into the light, in or out of time,

E|--------------------------|----------------------|
B|--5-------------5-7--5-7--|--8---------7-9--7-9--|
G|--------------------------|----------------------|
D|--------------------------|----------------------|
A|--------------------------|----------------------|
E|--------------------------|----------------------|
                                                           
E|--------------------------|----------------------|
B|--10--------13--13--13----|--10--10--------------|
G|------------13--13--13----|--10------------------|
D|--------------------------|----------------------|
A|--------------------------|----------------------|
E|--------------------------|----------------------|

F        G                                Am               Em
gonna rise straight through the light, in or out of time,

                                                     
E|--0--0------------------|-----0------------------|
B|--------3---------------|--3-----3---------------|
G|-------------5---4---2--|-------------5---4---2--|
D|------------------------|------------------------|
A|------------------------|------------------------|
E|------------------------|------------------------|
                                                          
E|------------------------|------------------------|
B|-----5--3---------------|-----5--3----------3----|
G|--5----------5---4---2--|--4----------5----------|
D|------------------------|------------------------|
A|------------------------|------------------------|
E|------------------------|------------------------|


F                       G
Woke up another day,    the pain won't go away,
E|----------------------|----------------------|
B|--x----------x----x---|--x----------x----x---|
G|--9----------9----9---|--7----------7----7---|
D|--x----------x----x---|--x----------x----x---|
A|----------------------|----------------------|
E|----------------------|----------------------|

Am                Em
I am goin in peculiar way,
E|----------------------|----------------------|
B|--x----------x----x---|--x----------x----x---|
G|--5----------5----5---|--4----------5----7---|
D|--x----------x----x---|--x----------x----x---|
A|----------------------|----------------------|
E|----------------------|----------------------|

F                     G                           Am
Into the light I pass another dream another trance,
E|---------------------|---------------------|
B|--6--------6----6----|--8--------8----8----|
G|---------------------|---------------------|
D|---------------------|---------------------|
A|---------------------|---------------------|
E|---------------------|---------------------|

this time, this time
E|------------------------|--------------------|
B|--10--------10----10----|--10----------------|
G|------------------------|--------------------|
D|------------------------|--------------------|
A|------------------------|--------------------|
E|------------------------|--------------------|
 

Em                 F         G               Am               Em
This time I'm gonna rise into the light, in or out of time,

F              G               Am               Em
gonna find my way in light, in or out of time,

F                      G               Am               Em
gonna rise straight through the light, in or out of time,
[Outro]

E|------------------------|------------------------|
B|------------------------|------------------------|
G|*-5--7------------------|--5--7------------------|
D|*-------5--7------------|--------5--7------------|
A|--------------5--7------|--------------5--7------|
E|------------------------|------------------------|

E|------------------------|------------------------|
B|------------------------|------------------------|
G|--5--7------------------|--5--5--5--5--7--------*|
D|--------5--7------------|-----------------5--7--*|
A|--------------5--7------|------------------------|
E|------------------------|------------------------|


F G Am Em - *all the way to the end*

----------------------------------------------------------------

 12. Velvet Morning

Chords:

A	(x02220)
D	(xx0232)
E	(022100)

Intro:

A    E    A    D


Verse 1:

A                E
Yes, its been long,
    A                 D
and yes, I still feel strong
		 A           E                          A      E
Into the half light, another velvet morning for me


Verse 2:

A             E
Time, stands still
	   A                D
As you take, your last pill
		 A	  		 E                          A          E
Into the half light, another velvet morning for me


Bridge:

		    A			      E
And now I'm trying to tell ya about my life
	   D						  E
And my tounge is twisted I'm more dead than alive
       A                       E
And my feelings they've always been betrayed
          D                         E
And I was born a little damaged man look what they've made


Chorus:

       A     E   D              E
I said don't you find, that its lonley,
     A   E  D            E
When nobody knows, their alone
A		E       D   E
Life is getting you dry
A		E		D	E
Life is getting your time


Verse 3:

A                 E
Tears, are coming down
            A            D
Your beauty is, a colour surrond
         A           E                          A        E
Into the half light, another velvet morning for me


Bridge:

		    A			      E
And now I'm trying to tell ya about my life
	   D						  E
And my tounge is twisted I'm more dead than alive
       A                       E
And my feelings they've always been betrayed
          D                         E
And I was born a little damaged man look what they've made


Chorus:

       A     E   D              E
I said don't you find, that its lonley,
     A   E  D               E
But lord knows, you wont be alone
A		E       D   E
Life is getting you dry
A		E		D	E
Life is getting your time


Outro:

A    E    D    (x4)

----------------------------------------------------------------

 13. Come On

Chords:

A	(002220)
B	(x2444x)
E	(022100)
E5	(x799xx)
D5	(x577xx)

intro:  A to B over and over again...continue over the verse...actually it
        it is the bass that plays this.

                       A       B
sort of like this:  e:-x--xx-x-x---------|
                    B:-5--55-5-7---------|
                    G:-6--66-6-8---------|
                    D:-7--77-7-9---------|
                    A:-7--77-7-9------7--|
                    E:-5--55-5-7---7h9---|...and back to A again


                                 A      B
Nick?s guitar over intro:  e:-----------------|
      (wah-wah)        B:---------------------|
                           G:-----------------|
                           D:-11\7----7/9-----|
                           A:-----------------|
                           E:-----------------|

A                      B
   I must be feeling low

A                         B                 A
   I talked to god in a phonebox on my way home

                  B                   A                          B
I told you my answer, I left you my dreams on your answering machine

----chorus----

B      A
Come o--n

         E        A
Let the spirit inside you

B                 A
Don't wait to be found

      E             A
Come along with my sound

B               A
Let the spirit move you

        E                      A
Let the waves come up, they'll fuse you

  B         A           E     B
I never met no one to deny a sound
----
intro again
----

A                     B
   I must be going insane

A                         B                 A
   I called the doctor so he can relieve my pain

                   B
He's got a little pill for me

               A                         B
Just a little luxury, help me through my day
------
chorus again...then this middlebreak:
------

e:--------------------------------|
B:--------------------------------|
G:--------------------------------|
D:----9---------------7-------7h9-|
A:2/6----6---7------6---9-7h9-----|
E:---------9----7h9---------------|   x2

------
back to introstuff....and then

A  B   D5 slide to E5   A   B    ..play this over:

Come on
Come on
Come on
Come on...

for sologuitar...play the bluesscale in B, starting on 7th fret, for example:

e:-----------------------------------------------------------------------|
B:-9-9-9-9h10-7--------------------------------8h10--10-9h10-9-7---------|
G:--------------------7-9b(10)-9b10-7----------------------------9-7-----|
D:--------------9--7h9----------------9-7--9-7-----------------------7h9-|
A:-----------------------------------------------------------------------|
E:-----------------------------------------------------------------------| on and on.
  improvise with this.


the other guitar just plays on with chords...(a, b, d5, e5, a, b)..

There's only one life
There's only one life

Let it go
Let it go
Let it go

This is a big
Fuck you!
This is a big
Fuck you!
Come on!

Just love somebody at the back
Just love somebody at the back

Come on now

---------------------------------------------------------------------
thanks to all tabbers.. comments... .. .. to rasheed2@post.sk
Добавлено: 23.04.2012
Другие материалы по этой песне:
  • Аккорды и текст

Страница создана 23.04.2012
http://primanota.ru/the-verve/urban-hymns-album-chords.htm
Привет, Гость.
Предлагаем пройти революционный курс по гитаре.
Подарок от PrimaNota.Ru, забирай!