PrimaNota.ru - самый крупный в мире бесплатный архив песенных текстов, аккордов, табулатур и нот


The Verve - On You Own - бас-таба, видео

Регистрация Запомнить меня
Войти через:  Facebook Google Twitter Vk Yandex Mail.ru

The Verve - On You Own - бас-таба, видео

Печатать
Просмотров: 56
Tab by Vale'90

Verse:
      Sol        Do          Mim       Do         Sol         Do           Mim        Do
G--------------------------------------------------------------------------|
D--------------------------------------------------------------------------|
A--------------------------------------------------------------------------|
E--3-3-3-3--8-8-8-8--0-0-0-0--8-8-8-8--3-3-3-3--8-8-8-8--0-0-0-0--8-8-8-8--|


Prechorus:
G-------------------------------------------------------------------------------|
D-------------------------------------------------------------------------------|
A-------------0-0-0-0-----------------------------------0-0-0-0-----------------|
E--3-3-3-3--------------8-8-8-8--0-0-0-0--3-3-3-3-------------8-8-8-8--0-0-0-0--|


Chorus:
   Do            Mim      Do            Mim
G--------------------------------------|
D--------------------------------------|
A--------------------------------------|
E--8-8-8-8--0-0-0-0--8-8-8-8--0-0-0-0--|

Verse
Prechorus
Chorus
Verse
Prechorus
ChorusX5
Добавлено: 21.09.2015
Другие материалы по этой песне:
  • Аккорды и текст

Страница создана 21.09.2015
http://primanota.ru/the-verve/on-you-own-chords.htm
Привет, Гость.
Предлагаем пройти революционный курс по гитаре.
Подарок от PrimaNota.Ru, забирай!